Fionn Regan Tabs

Be Good Or Be Gone

3 versions

TAB

            Be Good Or Be Gone Tab by Fionn Regan


artist: fionn regan
song: be good or be gone
http://www.fionnregan.com

capo 1st fret

intro
e|-------------------------------------------------0---------------|
b|-----3-------------------------3-----3-----------------3-------0-|
g|-----------0-----4-----2---0---------------0---------------0-----|
d|-----0-------0-------0-------0-------4-------4-------4-------4---|
a|---------------------------------2-------2-------2-------2-------|
e|-3-------3-------3-------3---------------------------------------|

e|-----------------3-----0-------0-----2-----------3-----2---0-----|
b|-----1---------------------1---------------1---------------------|
g|-----------2---------2-------2-------2-------2-------2-------2p0-|
d|-----2-------2-----------2-------0-------0-------0-------0-------|
a|-0-------0-------0-----------------------------------------------|
e|-----------------------------------------------------------------|

e|-------------------------------------------------0---------------|
b|-----3-------------------------3-----3-----------------3-------0-|
g|-----------0-----4-----2---0---------------0---------------0-----|
d|-----0-------0-------0-------0-------4-------4-------4-------4---|
a|---------------------------------2-------2-------2-------2-------|
e|-3-------3-------3-------3---------------------------------------|

e|-----------------3-----0-------0-----2-----------2h3---2---0-----|
b|-----1---------------------1---------------1---------------------|
g|-----------2---------2-------2-------2-------2-------2-------2p0-|
d|-----2-------2-----------2-------0-------0-------0-------0-------|
a|-0-------0-------0-----------------------------------------------|
e|-----------------------------------------------------------------|


chorus
e|-----0---------0-----0---------0-----0---------0-----0---------0-|
b|-----------1---------------1---------------1---------------1-----|
g|-----2-------2-------0-------0-------0-------0-------0-------0---|
d|---------2---------------0---------------2---------------0-------|
a|-0---------------2---------------3---------------2---------------|
e|-----------------------------------------------------------------|

e|-----0---------0-----0---------0-----0---------0-----------------|
b|-----------1---------------1---------------1---------------------|
g|-----2-------2-------0-------0-------0-------0-------------------|
d|---------2---------------0---------------2-------2-----0---------|
a|-0---------------2---------------3---------------------------3---|
e|-----------------------------------------------------------------|

e|-----------------------------------------------------------------|
b|-----3-----------------3---------------3-------3-------3-------3-|
g|-----------0-----0h2-------2-----2h4-------4-------0-------0-----|
d|-----0-------0-------0-------0-------0-------0-------2-------4---|
a|-----------------------------------------------------------------|
e|-3-------3-------3-------3-------3-------3-------3-------3-------|

e|-----------------------------------------------------------------|
b|-----3-----------------3-------3-------3-------3-------3-------3-|
g|-----------0-----2p0-------0-------0-------0-------0-------0-----|
d|-----0-------0-------0-------0-------4-------4-------2-------2---|
a|-----------------------------------------------------------------|
e|-3-------3-------3-------3-------3-------3-------3-------3-------|

e|---------------------------------------------------------------------------------|
b|---------------------------------------------------------------------------------|
g|---------------------------------------------------------------------------------|
d|---------------------------------------------------------------------------------|
a|---------------------------------------------------------------------------------|
e|---------------------------------------------------------------------------------|

e|---------------------------------------------------------------------------------|
b|---------------------------------------------------------------------------------|
g|---------------------------------------------------------------------------------|
d|---------------------------------------------------------------------------------|
a|---------------------------------------------------------------------------------|
e|---------------------------------------------------------------------------------|    

Added On December 4th, 2013

SHARE

Comments

blog comments powered by Disqus

VERSIONS

ADVERTISEMENT