Flaming Lips Tabs

What Does It Mean

1 versions

TAB

            This is a bonus track on Embryonic. It’s a good song, but I may have made some 
errors, so please, if you find one, leave a comment or PM and I will correct it.


INTRO
e|--------------------------------------|
B|--------------------------------------|
G|--------------------------------------|
D|--------------------------------------|
A|--------------------------------------|
E|-7-7-7-7-7-7-5-5-5-7-7-7-7-7-7-7-7-7—-|  (x1)
Then
e|--------------------------------------|
B|--------------------------------------|
G|--------------------------------------|
D|--------------------------------------|
A|--------------------------------------|
E|-7-7-7-7-7-7-5-5-5-7-7-7-7-7-7-5-5-5--|(x1)

VERSE TAB (If you want it. If not, skip to the song. I put the chords in there. If 
so, ignore the chords for only the verses.)
e|--------------------------------------------------------|
B|--------------------------------------------------------|
G|--------------------------------------------------------|
D|--------------------------------------------------------|
A|--------------------------------------------------------|
E|-7-7-7-7-7-7-5-5-5-7-7-7-7-7-7-5-5-5-3-3-3-3-3-3-3-3-3--|

In between verses play

e|--------------------------------------|
B|--------------------------------------|
G|--------------------------------------|
D|--------------------------------------|
A|--------------------------------------|
E|-7-7-7-7-7-7-5-5-5-7-7-7-7-7-7-5-5-5--|


VERSE 1

D                Dsus4  D   Dsus2     
You and me, we've lit our fuse
D                     Dsus4  D   Dsus2     
I don't care if we're born to lose
Em
Going to infinity

D
D               Dsus4  D   Dsus2     
Out all night, sun's too bright
D                     Dsus4  D   Dsus2     
Though I'm blind, it'll be all right
Em
Going to infinity

D
Em
What does it mean?
            D
Infinity

CHORUS 1
D                Dsus4  D   Dsus2     
You and me, we've lit our fuse
D                    Dsus4 D   Dsus2     
I don't care if we're born to lose
Em
Going to infinity

D
D              Dsus4  D   Dsus2     
Out all night, sun's too bright
D                     Dsus4  D   Dsus2     
Though I'm blind, it'll be all right
Em
Going to infinity

D
Em
What does it mean?
            D
Infinity

VERSE 2

D                  Dsus4  D   Dsus2     
You and me know it ends too soon
D                      Dsus4  D   Dsus2     
But I know we've got a death wish too
Em
Going to infinity

D                   Dsus4 D   Dsus2     
Out all night, we're burning away
D                    Dsus4  D   Dsus2     
I'm left tired and I sleep for days
Em
Going to infinity

D
Em
What does it mean?
           D
Infinity

CHORUS 2

D                  Dsus4  D   Dsus2     
You and me know it ends too soon
D                      Dsus4  D   Dsus2     
But I know we've got a death wish too
Em
Going to infinity

D                    Dsus4 D   Dsus2     
Out all night, we're burning away
D                    Dsus4  D   Dsus2     
I'm left tired and I sleep for days
Em
Going to infinity

D
Em
What does it mean?
           D
Infinity    

Added On December 16th, 2013

SHARE

Comments

blog comments powered by Disqus

ADVERTISEMENT