flaw Tabs

What I Have To Do

1 versions

TAB

            What I Have To Do Tab by Flaw


What I Have To Do from Flaw
Tuning: BEADGBe

Intro/verse
---------------------|
---------------------|
---------------------|
---------------------|X2
---------------------|
-2-22-2-22-2-22-2-22-|
-0-00-0-00-0-00-0-00-|

---------------------|
---------------------|
---------------------|
-5-55-5-55-5-55-5-55-|X2
-x-xx-x-xx-x-xx-x-xx-|
-3-33-3-33-3-33-3-33-|
-0-00-0-00-0-00-0-00-|

Chorus(play last line as the 2nd verse line)
------------------------------------|
------------------------------------|
------------------------------------|
------------------------------------|
------------------------------------|
-2-222-2-222-2--2-222-2-222-2h3p2p0-|
-0-000-0-000-0--0-000-0-000---------|
    ..    ..       ..    ..
------------------------------------|
------------------------------------|
------------------------------------|
-5-5---5-5---5--5-5---5-5-----------|
-x-x---x-x---x--x-x---x-x-----------|
-3-333-3-333-3--3-333-3-333-3h5p3\2-|
-0-000-0-000-0--0-000-0-000---------|
    ..    ..       ..    ..
-play Verse
-play Chorus

Fill
--------|
--------|
--------|
--------|
--------|
-2~~~---
-0~~~---

Interlude(hard to hear it all, just play with these notes, with a bit of reverb, octave 
on some too)
-----------------|
-----------------|
-12-11-----------|
-------12-14-----|
-------------14--|
-----------------|
-----------------|

-play Chorus

Outro
------------------|
------------------|
------------------|
------------------|
------------------|
-2-22-2~--2-22-2~-|
-0-00-0~--0-00-0~-|
    .        .    

Added On December 4th, 2013

SHARE

Comments

blog comments powered by Disqus

ADVERTISEMENT