TAB

            ---------------------------------------------------------------------------
			     Robots – The Flight of the Conchords
---------------------------------------------------------------------------
This was tabbed from the flute of the commodores EP album the “Distant future”. 
It was played acoustically so it’s not the same as the album version! 
But I hope its good enough for you.
I’ve left the timing up to you to figure out. Enjoy!

Tabbed by: Paddy
Email:Paddy_s13@hotmail.com

Tuning: Standard

e|-----------------------------0-----------------|
B|-----------------------------0-----------------|
G|-----------------------------0-----------------|
D|-----------------------------0-----------------|
A|-14/7-77777777--8-7-5-7-777--------------------|
E|-12/5-55555555--6-5-3-5-555--------------------|
        |--PM--|

The Humans are dead
e|-------------------------------------------------------------------|
B|-------------------------------------------------------------------|
G|-----------------------------------------------------------------9-|
D|-------------------7-7-7-7-7-7-7-7-5-5-5-5-5-5-5-5-7-7-7-7-7-7-7---|
A|--7-7-7-7-7-7-7-7-5-5-5-5-5-5-5-5-3-3-3-3-3-3-3-3-5-5-5-5-5-5-5-5--|
E|-5-5-5-5-5-5-5-5---------------------------------------------------|

Chorus: Over time we grew strong
e|------------------------------------------------------------------------|
B|------------------------------------------------------------------------|
G|------------------------------------------------------------------------|
D|-----------7777-5555--------------555555--------------------------------|
A|-3333-5555-5555-3333-33333-555555-333333--7-5-----7-5-----7-5-----7-5---|
E|-1111-3333-----------11111-333333--------5----6-5-----6-5-----6-5-----6/|


Break down: Maybe we could talk to the humans
e|-------------------------------------------------------------|
B|----6------6---------------------5------5--------------------|
G|---7-7-7--7-7-----4------4------5-5-5--5-5-5---2------2------|
D|--7---7--7---7---5-5-5--5-5-5--5---5—-5---5---3-3-3--3-3-3---|
A|-5------5-------5---5--5---5--3------3-------3---3--3---3----|
E|---------------3------3--------------------1------1----------|

e|-------------------------------------------------|
B|----3------3-----------5-------------------------|
G|---3-3-3--3-3-3-------5-5-5----------------------|
D|--3---3--3---3--4-5--5---5-----------------------|
A|-1------1-------2-3-3----------------------------|
E|-------------------------------------------------|

BINARY SOLO
e|------------------------------------|
B|------------------------------------|
G|-------5-XXX-7-XXX------------------|
D|-7-XXX-5-XXX-7-XXX-X2---------------|
A|-7-XXX-3-XXX-5-XXX------------------|
E|-5-XXX------------------------------|

Come on sucker lick my battery
BOOGIE, boogie,boogie, robo boogie
e|----------------------------------------------|
B|----------------------------------------------|
G|---------555555-777777777777------------------|
D|-7777777-555555-777777777777------------------|
A|-7777777-333333-555555555555------------------|
E|-5555555--------------------------------------|

Jazzy bit
e|-----8x8x---------8x8x------------------------|
B|-----8x8x---------8x8x------------------------|
G|-----8x8x8h10-----8x8x------------------------|
D|7/12----------7/12----------------------------|
A|----------------------------------------------|
E|----------------------------------------------|

Outro :once again without emotion
e|----------------------------------------------|
B|----------------------------------------------|
G|----------------------------------------------|
D|----------------------------------------------|
A|-7777777/3------------------------------------|
E|-5555555/1------------------------------------|

| /  slide up
| \  slide down
| h  hammer-on
| p  pull-off
| ~  vibrato
| +  harmonic
| x  Mute note
===========================================================================    

Added On December 16th, 2013

SHARE

Comments

blog comments powered by Disqus

ADVERTISEMENT