Foo Fighters Tabs

Erase Replace

2 versions

TAB

            Standard Tuning
This is somewhat confusing with 2 guitars, but it's not
too hard to figure it out.
2 GUITARS

--INTRO--
--Guitar 1--
e||--------------------------------------------------||
B||-----------13--10b-------------------11--8b-------||
G||-------------------10-----------------------8-----|| 
D||-----10/13---------------------10/13--------------|| 
A||--11------------------11----12----------------10--|| 
E||--------------------------------------------------||

THEN

--Guitar 1--
e||--------------------------------------------------||
B||-----------13--10b-------------------11--8b-------||
G||-------------------10-----------------------8-----|| 
D||-----10/13---------------------10/13--------------|| 
A||--11------------------11----12----------------10--|| 
E||--------------------------------------------------||
--Guitar 2--
e||------------------------------||
B||------------------------------||
G||---------3------5------8------|| 
D||--6------3------5------8------|| 
A||--6--x8--1--x8--3--x8--6--x8--|| 
E||--4------1------3------6------||


--VERSE--
--Guitar 1--
e||-----------||
B||-----------||
G||-----------|| 
D||--8-8-8-8--|| x176! 
A||-----------|| 
E||-----------||
--Guitar 2--
e||------------------------||
B||------------------------||
G||--8---------5------9-X--|| 
D||--8--x5--8--5--x5--9-X--|| x6
A||--6------8--3------7-X--|| 
E||---------6--------------||

--Guitar 2--
e||----------------------------||
B||----------------------------||
G||--8------------5------9-----|| 
D||--8-x5--8------5-x10--9-x5--|| x3
A||--6-----8-x10--3------7-----|| 
E||--------6-------------------||

--Guitar 2--
e||------------------||
B||------------------||
G||--8------------5--|| 
D||--8-x5--8------5--|| 
A||--6-----8-x10--3--|| 
E||--------6---------||


--CHORUS--
--Both Guitars--
e||------------------------------||
B||------------------------------||
G||---------3------5------8------|| 
D||--6------3------5------8------|| x4
A||--6--x8--1--x8--3--x8--6--x8--|| 
E||--4------1------3------6------||

then Repeat --VERSE--
then Repeat --CHORUS--

THEN
--Guitar 1-- PLAY THIS 3 TIMES
e||------------------------------------------------------------------------||
B||------------------------------------------------------------------------||
G||---------------------------------------9-x8-----------------------------|| 
D||--10-x15---12--12---13-x8--12-12-10-10------10-10-10-12-12-12-7-x16-----||  
A||------------------------------------------------------------------------|| 
E||------------------------------------------------------------------------||
--Guitar 2-- Very low volume
e||-----------||
B||-----------||
G||------0----|| 
D||-----------|| x24
A||--3-5------|| 
E||-----------||

THEN
--Guitar 1--
e||--------------------------------------------------||
B||-----------13--10b-------------------11--8b-------||
G||-------------------10-----------------------8-----|| 
D||-----10/13---------------------10/13--------------|| x2
A||--11------------------11----12----------------10--|| 
E||--------------------------------------------------||
--Guitar 2-- Very low volume
e||-----------||
B||-----------||
G||------0----|| 
D||-----------|| x8
A||--3-5------|| 
E||-----------||

THEN
--Guitar 1--
e||------------------------------||
B||------------------------------||
G||---------3------5------8------|| 
D||--6------3------5------8------|| x2
A||--6--x8--1--x8--3--x8--6--x8--|| 
E||--4------1------3------6------||
--Guitar 2-- 
e||------||
B||------||
G||------|| 
D||--10--|| x32
A||------|| 
E||------||

--Guitar 1--
e||------------------------------||
B||------------------------------||
G||---------3------5------8------|| 
D||--6------3------5------8------|| x4
A||--6--x8--1--x8--3--x8--6--x8--|| 
E||--4------1------3------6------||
--Guitar 2--
e||----------------------------------------------------||
B||-------------13--10b-------------------11--8b-------||
G||---------------------10-----------------------8-----|| 
D||-------10/13---------------------10/13--------------|| x1
A||-10-11------------------11----12----------------10--|| 
E||----------------------------------------------------||

--Guitar 2-- 
e||------||
B||------||
G||------|| 
D||--10--|| x32
A||------|| 
E||------||

THEN
--Guitar 1--
e||------------------------------||
B||------------------------------||
G||------------------------------|| 
D||--13-x8--15-x8--17-x8--15-x8--|| 
A||------------------------------|| 
E||------------------------------||

--OUTRO--
--Guitar 1-- 
e||---------------||
B||---------------||
G||--17b-17-17-17-|| 
D||---------------|| x8
A||---------------|| 
E||---------------||

--Guitar 2--
e||------------------------------||
B||------------------------------||
G||---------3------5------8------|| 
D||--6------3------5------8------|| x4
A||--6--x8--1--x8--3--x8--6--x8--|| 
E||--4------1------3------6------||

--Guitar 2--
e||------------------------------------------||
B||------------------------------------------||
G||--8---------5------9-X----8--------5------|| 
D||--8--x5--8--5--x5--9-X----8--x5-8--5--x5--|| 
A||--6------8--3------7-X----6-----8--3------|| 
E||---------6----------------------6---------||













-------------------------------------------------------------------------------
			   ERASE/REPLACE - Foo Fighters
-------------------------------------------------------------------------------
Tabbed by: Barry Miles

Intro Riff:

Guitar 1:
e|---------------------------------------------------------------------------|
B|-----------13--10b(11)r(10)------------------------------------------------|
G|----------------------------10------------------15-------------------------|
D|--------13-----------------------------------15-----15b(17)r(15)-----------|
A|---9/11------------------------12------11/13---------------------15--------|
E|--------------------------------------------------------------------15-----|

e|---------------------------------------------------------------------------|
B|-----------13--10b(11)r(10)---------------------------------------17-------|
G|----------------------------10------------------15-------15----15----15\---|
D|--------13-----------------------------------15----15-14----14-------------|
A|---9/11------------------------12------11/13-------------------------------|
E|---------------------------------------------------------------------------|

Guitar 2:
e|-----------------------------------------------------|
B|-------8-----------8-----------8------------8--------|
G|----0-----0-----0-----0-----0-----0------0-----------|
D|-6-----------7-----------8-----------10--------------|
A|-----------------------------------------------------|
E|-----------------------------------------------13\-0-|

e|-----------------------------------------------------------------|
B|-----------------------------------------------------------------|
G|-----------------------------------------------------------------|
D|-6-6-6-6-6-6-6-6-7-7-7-7-7-7-7-7-8-8-8-8-8-8-8-8-8-8-8-8-8-8-8-8-|
A|-6-6-6-6-6-6-6-6-8-8-8-8-8-8-8-8-8-8-8-8-8-8-8-8-7-7-7-7-7-7-7-7-|
E|-4-4-4-4-4-4-4-4-5-5-5-5-5-5-5-5-6-6-6-6-6-6-6-6-8-8-8-8-8-8-8-8-|

Verse:

Guitar 2:
e|---------------------------------|
B|---------------------------------| x20(ish?)
G|---------------------------------|
D|-8-8-8-8-8-8-8-8-8-8-8-8-8-8-8-8-|
A|---------------------------------|
E|---------------------------------|

Guitar 1:
e|---------------------------------------------|
B|---------------------------------------------|
G|---------------------------------------------| x6
D|-6-6-6-6-6-----------------------------------|
A|--------------------------------------7------|
E|---------------6-6-6-7-8-8-8-8-8---------8---|

e|-----------------------------------------------------------------|
B|-----------------------------------------------------------------|
G|-----------------------------------------------------------------| x3 1/2
D|-6-6-6-6-6-6-----------------------------------------------------|
A|---------------------------------------------7-7-7-7-7-7---------|
E|-------------6-6-6-6-6-6-6-6-6-7-8-8-8-8-8-8-------------8-8-8-8-|

Chorus:

Both Guitars:
e|-----------------------------------------------------------------|
B|-----------------------------------------------------------------|
G|-----------------------------------------------------------------| x2
D|-6-6-6-6-6-6-6-6-7-7-7-7-7-7-7-7-8-8-8-8-8-8-8-8-8-8-8-8-8-8-8-8-|
A|-6-6-6-6-6-6-6-6-8-8-8-8-8-8-8-8-8-8-8-8-8-8-8-8-7-7-7-7-7-7-7-7-|
E|-4-4-4-4-4-4-4-4-5-5-5-5-5-5-5-5-6-6-6-6-6-6-6-6-8-8-8-8-8-8-8-8-|

Verse
Chorus x2

Bridge:

Guitar 2:
e|-----------------------------------------------------------------|
B|-----------------------------------------------------------------|
G|-------0---------------0---------------0---------------0---------|
D|-----5-----5---------5-----5---------5-----5---------5-----5-----|
A|---3-----------3---3-----------3---3-----------3---3-----------3-|
E|-5-----------5---5-----------5---4-----------4---4-----------4---|
                                                                     x3
e|-----------------------------------------------------------------|
B|-----------------------------------------------------------------|
G|-------0---------------0---------------0---------------0---------|
D|-----5-----5---------5-----5---------3-----3---------3-----3-----|
A|---3-----------3---3-----------3---3-----------3---3-----------3-|
E|-0-----------0---0-----------0---1-----------1---1-----------1---|

Guitar 1:
e|-----------------------------------------------------------------|
B|-----------------------------------------------------------------|
G|-5-5-5-5-5-5-5-5-5-5-5-5-5-5-5-7-7-7-8-8-8-8-8-8-8-8-8-7-7-7-5-5-|
D|-x-x-x-x-x-x-x-x-x-x-x-x-x-x-x-x-x-x-x-x-x-x-x-x-x-x-x-x-x-x-x-x-|
A|-3-3-3-3-3-3-3-3-3-3-3-3-3-3-3-5-5-5-6-6-6-6-6-6-6-6-6-5-5-5-3-3-|
E|-----------------------------------------------------------------|
                                                                     x3
e|-----------------------------------------------------------------|
B|-----------------------------------------------------------------|
G|-5-9-9-9-9-9-9-9-9-9-5-5-5-7-7-7---------------------------------|
D|-x-x-x-x-x-x-x-x-x-x-x-x-x-x-x-x-7-7-7-7-7-7-7-7-7-7-7-7-7-7-7-7-|
A|-3-7-7-7-7-7-7-7-7-7-3-3-3-5-5-5-x-x-x-x-x-x-x-x-x-x-x-x-x-x-x-x-|
E|---------------------------------5-5-5-5-5-5-5-5-5-5-5-5-5-5-5-5-|

Guitar 1 w/Intro Riff x2

Guitar 2:
e|----------------------------------------------------|
B|----------------------------------------------------|
G|-------0--------0---0--------0------------0---------|
D|-----6--------7------------8------------8-----8-----| x2
A|---6--------8------------8------------7-----------7-|
E|-4--------5------------6------------8-----------8---|

Final Chorus:

Guitar 2 w/Regular Chorus x3

Guitar 1 w/Chorus Riff (only once) then:
e|---------------------------------------------------------------------------|
B|---------------------------------------------------------------------------|
G|-17-17-17-17-17-17-17-17-17-17-17-17-17-17-17-17-17-17-17-17-17-17-17-17-17|
D|-x--x--x--x--x--x--x--x--x--x--x--x--x--x--x--x--x--x--x--x--x--x--x--x--x-|
A|-15-15-15-15-15-15-15-15-15-15-15-15-15-15-15-15-15-15-15-15-15-15-15-15-15|
E|---------------------------------------------------------------------------|

(Intro Riff x1)

e|---------------------------------------------------------------------------|
B|---------------------------------------------------------------------------|
G|-17-17-17-17-17-17-17-17-17-17-17-17-17-17-17-17-17-17-17-17-17-17-17-17-17|
D|-x--x--x--x--x--x--x--x--x--x--x--x--x--x--x--x--x--x--x--x--x--x--x--x--x-|
A|-15-15-15-15-15-15-15-15-15-15-15-15-15-15-15-15-15-15-15-15-15-15-15-15-15|
E|---------------------------------------------------------------------------|

e|-------------------------------------------------|
B|-16-16-16-16-16-16-16-16-18-18-18-18-18-18-18-18-|
G|-x--x--x--x--x--x--x--x--x--x--x--x--x--x--x--x--|
D|-13-13-13-13-13-13-13-13-15-15-15-15-15-15-15-15-|
A|-------------------------------------------------|
E|-------------------------------------------------|

e|-------------------------------------------------|
B|-20-20-20-20-20-20-20-20-17-17-17-17-17-17-17-17-|
G|-x--x--x--x--x--x--x--x--x--x--x--x--x--x--x--x--|
D|-17-17-17-17-17-17-17-17-14-14-14-14-14-14-14-14-|
A|-------------------------------------------------|
E|-------------------------------------------------|

e|-----------------------------------|
B|-13--------13--13--13--13--13--13--|
G|-15b(17)---15b-15b-15b-15b-15b-15b-| x4
D|-----------------------------------|
A|-----------------------------------|
E|-----------------------------------|

Outro:

Guitar 1:
e|---------------------------------------------|
B|---------------------------------------------|
G|---------------------------------------------| x1 1/2
D|-6-6-6-6-6-----------------------------------|
A|--------------------------------------7------|
E|---------------6-6-6-7-8-8-8-8-8---------8---|

Guitar 2:
e|---------------------------------------------------------------------------|
B|---------------------------------------------------------------------------|
G|-5-5-5-5-5-5-5-5-5-5-5-5-5-5-5-5-5-5-5-5-5-5-5-5/////////////17------------|
D|-8-8-8-8-8-8-8-8-8-8-8-8-8-8-8-8-8-8-8-8-8-8-8-8/////////////20------------|
A|---------------------------------------------------------------------------|
E|---------------------------------------------------------------------------|


| /  slide up
| \  slide down
| h  hammer-on
| p  pull-off
| ~  vibrato
| +  harmonic
| x  Mute note
===============================================================================    

Added On December 16th, 2013

SHARE

Comments

blog comments powered by Disqus

VERSIONS

ADVERTISEMENT