Foo Fighters Tabs

Long Road To Ruin

5 versions

TAB

            ==================================================
         Foo Fighters - Long Road To Ruin
From the album "Echoes, Silence, Patience & Grace"
==================================================

Okay, first, i'd like to give credit to:
- geetarzan69;
- Luigi Corvino;
- ezequielgdl.
I read their tab submissions for this song, took some parts off them,
and changed/added a few bits to make my interpretation of the song.
It's a full tab, NO CHORDS.
I arranged it for one guitar only (except for the solo, where you can
play either the solo or the background rhythm guitar).
Sounds great when played along with the record.

Standard tuning

Intro
e|------------------|
B|-5-5-5~~--5-5-5~~-|
G|-5-5-5~~--5-5-5~~-|
D|-5-5-5~~--5-5-5~~-|
A|-3-3-3~~--3-3-3~~-|
E|------------------|

Verse
e|-----0---------3-|-----0-------------|
B|-1-3---3-1-0-1---|-1-3---3-1-0-1-----|
G|-----------------|-------------------|
D|-----------------|----------------3--|
A|-----------------|-------------------|
E|-----------------|-------------------|

e|-----0---------3-|-----0-------------|
B|-1-3---3-1-0-1---|-1-3---3-1-0-1-1---|
G|-----------------|-------------------|
D|-----------------|-------------------|
A|-----------------|-------------------|
E|-----------------|-------------------|

Pre-Chorus
e|----------------------------|-------------------------------|
B|----------------------------|-------------------------------|
G|----------------------------|-------------------------------|
D|----------------------------|----------------------7-7-7-7--|
A|-0---0--2---2--3---3--2---2-|-0---0--2---2--3---3--5-5-5-5--|
E|---1------3------5------3---|---1------3------5-------------|

Chorus
e|----------------------------------------------------|
B|----------------------------------------------------|
G|-----5~~------5~5-4-----------------7-7-7-7-7-7-7-7-|
D|-3~~-5~~--3~~-5~5-4-7-7-7-7-7-7-7-7-7-7-7-7-7-7-7-7-|
A|-3~~-3~~--3~~-3~3-2-7-7-7-7-7-7-7-7-5-5-5-5-5-5-5-5-|
E|-1~~------1~~-------5-5-5-5-5-5-5-5-----------------|

e|----------------------------------------|
B|----------------------------------------|
G|----------------------------------------|
D|-3-3-3-3-5-5-5-5-7-7-7-7-9-9-9-9-x-10~~-|
A|-3-3-3-3-5-5-5-5-7-7-7-7-9-9-9-9-x-10~~-|
E|-1-1-1-1-3-3-3-3-5-5-5-5-7-7-7-7-x--8~~-|

Bridge
e|-------3------------3---|
B|---------3------------3-|
G|-----5------------5-----|
D|---5------------5-------|
A|-3------------2---------|
E|------------------------|

Solo (or you can just keep playing the Chorus)
e|-------------------------|--------------------|-----------------------|
B|-----8-8-----------------|-------------8-8----|-----------------------|
G|-----------9b-7h9p7-\5-7-|-5---------------9b-|-7-9-7-5-----5-h7-p5---|
D|-5/7---------------------|---7-5--5-/7--------|---------7-5---------7-|
A|-------------------------|--------------------|-----------------------|
E|-------------------------|--------------------|-----------------------|

e|--------------------------------------|-----------------------------|
B|--------------------------------------|-----------------------------|
G|-5------------------------------------|-----------------------------|
D|---7-p5---5-h7-p5---5-h7-p5-----------|------------------------5-h7-|
A|--------7---------7---------7-5-h7-p--|-5-h7-p--5---------5-h7------|
E|------------------------------------8-|-------8---8-5-8-8-----------|

e|-------------------|-----------------------|---------------------|
B|-5-5------5-5------|-----------------------|---------------------|
G|-5-5------5-5------|-5-7b-7b-7b-7b-7b-7r---|-5-7-5-h7-p5---------|
D|-----5-h7-----7-5--|-----------------------|---------------------|
A|-------------------|-----------------------|---------------------|
E|-------------------|-----------------------|---------------------|

e|--------------------------|-------------------|
B|-5--------5--------5------|-------------------|
G|-5--------5--------5------|-------------------|
D|---7-p5-----7-p5-----7-p5-|---5---------------|
A|--------5--------5--------|-5---7-p5---5------|
E|--------------------------|----------8---8-5--|

End with Chorus and let ring.    

Added On December 16th, 2013

SHARE

Comments

blog comments powered by Disqus