Foster The People Tabs

Helena Beat Acoustic

1 versions

TAB

            -------------------------------------------------------------------------------
                           Helena Beat - Foster The People
-------------------------------------------------------------------------------
Tabbed by: Marsela
Email: marsela.gavrilova@gmail.com

Tuning: Standard

 *These are the chords that Mark Foster plays on their acoustic shows. I also tabbed
that little part that Mark F. plays. I don't know the names of these chords, so I'm just
going to call them F and G. Also thanks to Gareth C. for correcting the names of 
the main chords. If you have any corrections or questions feel free to 
leave a comment or e-mail me*

    Em      F#m    D5/A     C/E      G

e|---0---|---0---|---0---|---0---|---3---|
B|---0---|---0---|---3---|---1---|---0---|
G|---0---|---0---|---0---|---0---|---4---|
D|---5---|---7---|---4---|---2---|---5---|
A|---7---|---9---|---5---|---3---|---5---|
E|---7---|---9---|---5---|---3---|---x---|

Rhythm:

 Em Em Em F#m | D5/A D5/A D5/A D5/A | C/E C/E D5/A D5/A | G G D5/A D5/A |  *This 
goes through the whole song except bridge*

Bridge:
    F   G
e|------0-0-0-0-0-0-0-------------------------------------------------|
B|------0-0-0-0-0-0-0-------------------------------------------------|
G|------0-0-0-0-0-0-0-------------------------------------------------|
D|---/5-5-5-5-5-5-5-5-------------------------------------------------|
A|--5s7-7-7-7-7-7-7-7-------------------------------------------------|
E|--5s7-7-7-7-7-7-7-7-------------------------------------------------| 2x

 * G G G G | FsG G G G | FsG G G G | FsG G G G | *


e|--------------------------------------12-10-------------------------|
B|--10s12-12-12-12-12-12-12-12-12-10-10-------------------------------|
G|--------------------------------------------------------------------|
D|--------------------------------------------------------------------|
A|--------------------------------------------------------------------|
E|--------------------------------------------------------------------|


e|---------------------------------------12-10------------------------|
B|--10s8-8-8-8-8s10-10-10-10-10s12-12-12------------------------------|
G|--------------------------------------------------------------------|
D|--------------------------------------------------------------------|
A|--------------------------------------------------------------------|
E|--------------------------------------------------------------------|


e|--------------------------------------12-10-------------------------|
B|--10s12-12-12-12-12-12-12-12-12-10-10-------------------------------|
G|--------------------------------------------------------------------|
D|--------------------------------------------------------------------|
A|--------------------------------------------------------------------|
E|--------------------------------------------------------------------|


e|---------------------------------12-12-12-15-15-15------------------|
B|--10s8-8-8-8-8s10-10-10-10-10s12-12-12-12-15-15-15------------------|
G|--------------------------------------------------------------------|
D|--------------------------------------------------------------------|
A|--------------------------------------------------------------------|
E|--------------------------------------------------------------------|



************************************

| /   slide up
| \   slide down
| h   hammer-on
| p   pull-off
| ~   vibrato
| +   harmonic
| x   Mute note
| b   Bend
| pb  Pre-bend
| br  Bend release
| pbr Pre-bend release
| brb Bend release bend

************************************    

Added On December 16th, 2013

SHARE

Comments

blog comments powered by Disqus

ADVERTISEMENT