From First To Last Tabs

Populace In Two

3 versions

TAB

            Populace In Two Tab by From First To Last


-------------------------------------------------------------------------------
		     Populace in two - From First To Last
-------------------------------------------------------------------------------
Tabbed by: Harrison
Email: fsas_6996@hotmail.com
 
Tuning: Normal

 This is the 3rd in my fftl series im positive its right and im positive my
 others are right also

   Intro
e|---------------------------------------------------------------------------|
B|---------------------------------------------------------------------------|
G|-6--6-6--6--6--11--11-11--11--11------play 6 times-------------------------|
D|-7--7-7--7--7--11--11-11--11--11-------------------------------------------|
A|-4--4-4--4--4--9---9--9---9---9--------------------------------------------|
E|---------------------------------------------------------------------------|
     Verse
e|---------------------------------------------------------------------------|
B|---------------------------------------------------------------------------|
G|-6-6-6-x-x-6-x--6-6-6-x-x-6-x--7-7-7-x-x-7-x--7-7-7-x-x-7-x----------------|
D|-7-7-7-x-x-7-x--7-7-7-x-x-7-x--7-7-7-x-x-7-x--7-7-7-x-x-7-x----------------|
A|-4-4-4-x-x-4-x--4-4-4-x-x-4-x--5-5-5-x-x-5-x--5-5-5-x-x-5-x----------------|
E|---------------------------------------------------------------------------|

e|-----------------------------play verse 4 times----------------------------|
B|---------------------------------------------------------------------------|
G|-11-11-11-11-11-11-11-11--9-9-9-9-9-9-9-9--6-6-6-6-6-6-6-6-6-6-6-6-6-6-6-6-|
D|-11-11-11-11-11-11-11-11--9-9-9-9-9-9-9-9--6-6-6-6-6-6-6-6-6-6-6-6-6-6-6-6-|
A|-9--9--9--9--9--9--9--9---7-7-7-7-7-7-7-7--4-4-4-4-4-4-4-4-4-4-4-4-4-4-4-4-|
E|---------------------------------------------------------------------------|
   Chorus
e|---------------------------------------------------------------------------|
B|---------------------------------------------------------------------------|
G|-2-----------6-6-6-6-6-6-6-6--7-7-7-7-7-7-7-7------------------------------|
D|-2-16 times--6-6-6-6-6-6-6-6--7-7-7-7-7-7-7-7------------------------------|
A|-0-----------4-4-4-4-4-4-4-4--5-5-5-5-5-5-5-5------------------------------|
E|---------------------------------------------------------------------------|
   Interlude
e|---------------play 2 times------------------------------------------------|
B|---------------------------------------------------------------------------|
G|-------------------------6---6-----6---6-----7-7p6-------6---6-------------|
D|-----7---7-----7---7-----------------------------------------------7---7---|
A|-5-5---5---5-5---5---5-5---5---5-5---5---5-5-------5-5-5---5---5-5---5-----|
E|---------------------------------------------------------------------------|
                      Part 2 of Interlude
e|-----------------|---------------------------------------------------------|
B|-----------------|---------------------------------------------------------|
G|---7-----6-------|-6----------7-----------11-11-11-11-11-11-11-11----------|
D|---------------7-|-6-16 times-7-16 times--x--x--x--x--x--x--x--x-----------|
A|-5---5-5---5-5---|-4----------5-----------9--9--9--9--9--9--9--9-----------|
E|-----------------|---------------------------------------------------------|

e|------------------------play 2 times---------------------------------------|
B|---------------------------------------------------------------------------|
G|-13-13-13-13-13-13-13-13-14-14-14-14-14-14-9-11-11-11-11-11-11-7-----------|
D|-x--x--x--x--x--x--x--x--x--x--x--x--x--x--x-x--x--x--x--x--x--x-----------|
A|-11-11-11-11-11-11-11-11-12-12-12-12-12-12-7-9--9--9--9--9--9--5-----------|
E|---------------------------------------------------------------------------|
   Solo!!
e|---------------------------------------------------------------------------|
B|---------------------------------------------------------------------------|
G|---------------------------------------------------------------------------|
D|-11-9-7-9-7-5--------------------------------------11-9-7-9-7-5------------|
A|--------------11-9-7--7-11--11-7--9-9-9-7-9-9-9-7---------------11-9-7-----|
E|---------------------------------------------------------------------------|

e|---------------------------------------------------------------------------|
B|---------------------------------------15-14-----15-14---------------------|
G|-------------11-11-11-9-11-11-11-9--14--------14-------11------------------|
D|---------------------------------------------------------------------------|
A|-7-11--11-7----------------------------------------------------------------|
E|---------------------------------------------------------------------------|
Outro (guitar 1) Outro (guitar 2)
e|--------14-|-----------------------------play 4 times----------------------|
B|-15-14-----|---------------------------------------------------------------|
G|-----------|-6--6-6--6--6--11--11-11--11--11-------------------------------|
D|-----------|-7--7-7--7--7--11--11-11--11--11-------------------------------|
A|-----------|-4--4-4--4--4--9---9--9---9---9--------------------------------|
E|-----------|---------------------------------------------------------------|

| /  slide up
| \  slide down
| h  hammer-on
| p  pull-off
| ~  vibrato
| +  harmonic
| x  Mute note
===============================================================================    

Added On December 4th, 2013

SHARE

Comments

blog comments powered by Disqus

VERSIONS

ADVERTISEMENT