Geri Halliwell Tabs

Lift Me Up

1 versions

TAB

            Lift Me Up Chords by Geri Halliwell

Geri Halliwell – Lift Me Up 
Tabbed by rwdaykin – If you can work out the verse, please send it to me @ rwdaykin@hotmail.com

Intro


E|-4-5-4-0-------------------
B|--------0-2-2--0-----------
G|---------------------------
D|---------------------------
A|---------------------------
E|---------------------------

Repeat three times

At the end of the third run do

E|-----0-2-------------------
B|--4------------------------
G|---------------------------
D|---------------------------
A|---------------------------
E|---------------------------
         

Verse 1: Yet To Work Out

Watch the first light
Kiss The New World
It’s a wonder
Baby, like you and I
All The Colours 
Of The Rainbow
Going Somewhere
Baby Like You and I


Bridge

                F#m7
F#m7
e |-x-|---|---|---|---|
B |---|---|---|-x-|---|
G |-x-|---|---|---|---|
D |-x-|---|---|---|---|
A |---|---|-x-|---|---|
E |-x-|---|---|---|---|
B
B
e |---|-x-|---|---|---|
B |---|---|---|-x-|---|
G |---|---|---|-x-|---|
D |---|---|---|-x-|---|
A |---|-x-|---|---|---|
E |---|-x-|---|---|---|
It’s gonna be alright (Gonna Be Alright) A
A
e |---|---|---|---|---|
B |---|-x-|---|---|---|
G |---|-x-|---|---|---|
D |---|-x-|---|---|---|
A |---|---|---|---|---|
E |---|---|---|---|---|
B
B
e |---|-x-|---|---|---|
B |---|---|---|-x-|---|
G |---|---|---|-x-|---|
D |---|---|---|-x-|---|
A |---|-x-|---|---|---|
E |---|-x-|---|---|---|
But when my sky clouds over Chorus: Same As Intro E
E
e |---|---|---|---|---|
B |---|---|---|---|---|
G |-x-|---|---|---|---|
D |---|-x-|---|---|---|
A |---|-x-|---|---|---|
E |---|---|---|---|---|
A
A
e |---|---|---|---|---|
B |---|-x-|---|---|---|
G |---|-x-|---|---|---|
D |---|-x-|---|---|---|
A |---|---|---|---|---|
E |---|---|---|---|---|
E
E
e |---|---|---|---|---|
B |---|---|---|---|---|
G |-x-|---|---|---|---|
D |---|-x-|---|---|---|
A |---|-x-|---|---|---|
E |---|---|---|---|---|
A
A
e |---|---|---|---|---|
B |---|-x-|---|---|---|
G |---|-x-|---|---|---|
D |---|-x-|---|---|---|
A |---|---|---|---|---|
E |---|---|---|---|---|
E
E
e |---|---|---|---|---|
B |---|---|---|---|---|
G |-x-|---|---|---|---|
D |---|-x-|---|---|---|
A |---|-x-|---|---|---|
E |---|---|---|---|---|
A
A
e |---|---|---|---|---|
B |---|-x-|---|---|---|
G |---|-x-|---|---|---|
D |---|-x-|---|---|---|
A |---|---|---|---|---|
E |---|---|---|---|---|
B
B
e |---|-x-|---|---|---|
B |---|---|---|-x-|---|
G |---|---|---|-x-|---|
D |---|---|---|-x-|---|
A |---|-x-|---|---|---|
E |---|-x-|---|---|---|
C#m
C#m
e |-x-|---|---|---|---|
B |---|-x-|---|---|---|
G |---|---|-x-|---|---|
D |---|---|-x-|---|---|
A |-x-|---|---|---|---|
E |---|---|---|---|---|
F#m7
F#m7
e |-x-|---|---|---|---|
B |---|---|---|-x-|---|
G |-x-|---|---|---|---|
D |-x-|---|---|---|---|
A |---|---|-x-|---|---|
E |-x-|---|---|---|---|
Lift Me Up When The Day Is Over Take Me Up When The Sun Is Going Down Show Me Love I will be your angel now Lift Me Up When The Lights Are Fading Talk me down When I’m flying way up high Show Me Love And I’ll be your angel for life Your Angel for life Verse 2: Yet to work out Like the seasons Ever Changing Everlasting Baby Like You and I Bridge Chorus Bridge 2: No Matter Where we run Who knows what we will become Is there a world we know Where life will naturally… Chorus – Key Change F
F
e |-x-|---|---|---|---|
B |-x-|---|---|---|---|
G |---|-x-|---|---|---|
D |---|---|-x-|---|---|
A |---|---|-x-|---|---|
E |-x-|---|---|---|---|
Bb
Bb
e |---|---|---|---|---|
B |---|---|-x-|---|---|
G |---|---|-x-|---|---|
D |---|---|-x-|---|---|
A |-x-|---|---|---|---|
E |---|---|---|---|---|
F
F
e |-x-|---|---|---|---|
B |-x-|---|---|---|---|
G |---|-x-|---|---|---|
D |---|---|-x-|---|---|
A |---|---|-x-|---|---|
E |-x-|---|---|---|---|
Bb
Bb
e |---|---|---|---|---|
B |---|---|-x-|---|---|
G |---|---|-x-|---|---|
D |---|---|-x-|---|---|
A |-x-|---|---|---|---|
E |---|---|---|---|---|
F
F
e |-x-|---|---|---|---|
B |-x-|---|---|---|---|
G |---|-x-|---|---|---|
D |---|---|-x-|---|---|
A |---|---|-x-|---|---|
E |-x-|---|---|---|---|
Bb
Bb
e |---|---|---|---|---|
B |---|---|-x-|---|---|
G |---|---|-x-|---|---|
D |---|---|-x-|---|---|
A |-x-|---|---|---|---|
E |---|---|---|---|---|
C
C
e |---|---|-x-|---|---|
B |-x-|---|---|---|---|
G |---|---|---|---|---|
D |---|-x-|---|---|---|
A |---|---|-x-|---|---|
E |---|---|---|---|---|
Dm
Dm
e |-x-|---|---|---|---|
B |---|---|-x-|---|---|
G |---|-x-|---|---|---|
D |---|---|---|---|---|
A |---|---|---|---|---|
E |---|---|---|---|---|
Gm7
Gm7
e |-x-|---|---|---|---|
B |---|---|---|-x-|---|
G |-x-|---|---|---|---|
D |-x-|---|---|---|---|
A |---|---|-x-|---|---|
E |-x-|---|---|---|---|
Lift Me Up When The Day Is Over Take Me Up When The Sun Is Going Down Show Me Love I will be your angel now Lift Me Up When The Lights Are Fading Talk me down When I’m flying way up high Show Me Love And I’ll be your angel for life Your Angel for life End On F

Added On December 4th, 2013

SHARE

Comments

blog comments powered by Disqus

ADVERTISEMENT