Get Cape Wear Cape Fly Tabs

Chronicles Of A Bohemian Teenager

3 versions

TAB

            Chronicles Of A Bohemian Teenager Tab by Get Cape Wear Cape Fly


Song: Chronicles Of A Bohemian Teenager
Band: Get Cape Wear Cape Fly
Tabber: James Simmons

PLEASE READ
Comments: the other tab which is the chords minus the intro
is very good but i managed to work out a rough outline of
the intro. it sounds better if you just improvise around the
chords which im sure is what this guy actually does. through
much of the strummed parts there lots of scratches that i havnt
tabbed but once you get the rhythm of the song it becomes clear
where they all are. i hope this song gets the airplay it deserves
when its released
please rate it. cheers

CAPO 4

Intro
e------------------------------------------------------------|
b--------7-5--7---5-7-------7-5--7---5-7------7-5--7---5-7---|
g------0--------0---------0--------0--------0--------0-------|
d-----------------------5------------------------------------|
a----7-----------------6------------------5------------------|
e--0---------------------------------------------------------|

e--------3-----------5------------3-----------5--------------|
b----------0-----------0------------0-----------0------------|
g------0-----------0------------0-----------0----------------|
d----2-----------4------------2-----------4------------------|
a--3-----------5------------3-----------5--------------------|
e------------------------------------------------------------|

e---------7---7---------------7---7--------------7---7-------|
b-----------0---0---0-----------0---0---0----------0---0---0-|
g------0----------0--------0----------0--------0---------0---|
d----5-------------------5-------------------5---------------|
a--7-------------------6-------------------5-----------------|
e------------------------------------------------------------|

e----------3-------------5--------------3-------------5------|
b------------0-------------0--------------0-------------0----|
g--------0-------------0--------------0-------------0--------|
d------2-------------4--------------2-------------4----------|
a-0h-3-----------3s5------------0h3-----------3s5------------|
e------------------------------------------------------------|


Verse: I am stuck in minor chords...
e---------7---7---------------7---7--------------7---7-------|
b-----------0---0---0-----------0---0---0----------0---0---0-|
g------0----------0--------0----------0--------0---------0---|
d----5-------------------5-------------------5---------------|
a--7-------------------6-------------------5-----------------|
e------------------------------------------------------------|


e--------3-----------5------|
b----------0-----------0----|
g------0-----------0--------|
d----2-----------4----------|
a--3-----------5------------|
e---------------------------|

so get over here, lets grab ourselves another beer...
e---------7---7---------------7---7--------------7---7-------|
b-----------0---0---0-----------0---0---0----------0---0---0-|
g------0----------0--------0----------0--------0---------0---|
d----5-------------------5-------------------5---------------|
a--7-------------------6-------------------5-----------------|
e------------------------------------------------------------|

e--------3-----------5------------3-----------5--------------|
b----------0-----------0------------0-----------0------------|
g------0-----------0------------0-----------0----------------|
d----2-----------4------------2-----------4------------------|
a--3-----------5------------3-----------5--------------------|
e------------------------------------------------------------|

(trumpet enters)
drinking to forget, always breeds regrets...
e---------7---7---------------7---7--------------7---7-------|
b-----------0---0---0-----------0---0---0----------0---0---0-|
g------0----------0--------0----------0--------0---------0---|
d----5-------------------5-------------------5---------------|
a--7-------------------6-------------------5-----------------|
e------------------------------------------------------------|


e--------3-----------5------|
b----------0-----------0----|
g------0-----------0--------|
d----2-----------4----------|
a--3-----------5------------|
e---------------------------|

i do believe that my, slef constructed alibi....
e---------7---7---------------7---7--------------7---7-------|
b-----------0---0---0-----------0---0---0----------0---0---0-|
g------0----------0--------0----------0--------0---------0---|
d----5-------------------5-------------------5---------------|
a--7-------------------6-------------------5-----------------|
e------------------------------------------------------------|

e--------3-----------5------------3-----------5--------------|
b----------0-----------0------------0-----------0------------|
g------0-----------0------------0-----------0----------------|
d----2-----------4------------2-----------4------------------|
a--3-----------5------------3-----------5--------------------|
e------------------------------------------------------------|

e--------3-----------5------|
b----------0-----------0----|
g------0-----------0--------|
d----2-----------4----------|
a--3-----------5------------|
e---------------------------|

(drums kick in)
e----7-7-7--0--0--0-0---7-7-7--0--0--0-0---------------------|
b----0-0-0--7--7--7-7---0-0-0--7--7--7-7---------------------|
g----0-0-0--0--0--0-0---0-0-0--0--0--0-0---------------------|
d----5-5-5--5--5--5-5---5-5-5--5--5--5-5---------------------|
a----7-7-7--7--7--7-7---7-7-7--7--7--7-7---------------------|
e--0-------------------0-------------------------------------|
                                                             x2 no vocals
e----3-3-3--0--0--0-0----3-3-3--0--0--0-0--------------------|
b----0-0-0--3--3--3-3----0-0-0--3--3--3-3--------------------|
g----0-0-0--0--0--0-0----0-0-0--0--0--0-0--------------------|
d----2-2-2--2--2--2-2----2-2-2--2--2--2-2--------------------|
a--3-3-3-3--3--3--3-3-3--3-3-3--3--3--3-3--------------------|
e------------------------------------------------------------|

im sick of making sure....
e----7-7-7--0--0--0-0---7-7-7--0--0--0-0---------------------|
b----0-0-0--7--7--7-7---0-0-0--7--7--7-7---------------------|
g----0-0-0--0--0--0-0---0-0-0--0--0--0-0---------------------|
d----5-5-5--5--5--5-5---5-5-5--5--5--5-5---------------------|
a----7-7-7--7--7--7-7---7-7-7--7--7--7-7---------------------|
e--0-------------------0-------------------------------------|

e----3-3-3--0--0--0-0----3-3-3--0--0--0-0--------------------|
b----0-0-0--3--3--3-3----0-0-0--3--3--3-3--------------------|
g----0-0-0--0--0--0-0----0-0-0--0--0--0-0--------------------|
d----2-2-2--2--2--2-2----2-2-2--2--2--2-2--------------------|
a--3-3-3-3--3--3--3-3-3--3-3-3--3--3--3-3--------------------|
e------------------------------------------------------------|

this song is more....
e----7-7-7--0--0--0-0---7-7-7--0--0--0-0---------------------|
b----0-0-0--7--7--7-7---0-0-0--7--7--7-7---------------------|
g----0-0-0--0--0--0-0---0-0-0--0--0--0-0---------------------|
d----5-5-5--5--5--5-5---5-5-5--5--5--5-5---------------------|
a----7-7-7--7--7--7-7---7-7-7--7--7--7-7---------------------|
e--0-------------------0-------------------------------------|

e----3-3-3--0--0--0-0----3-3-3--0--0--0-0--------------------|
b----0-0-0--3--3--3-3----0-0-0--3--3--3-3--------------------|
g----0-0-0--0--0--0-0----0-0-0--0--0--0-0--------------------|
d----2-2-2--2--2--2-2----2-2-2--2--2--2-2--------------------|
a--3-3-3-3--3--3--3-3-3--3-3-3--3--3--3-3--------------------|
e------------------------------------------------------------|

well im still here
e--3--3-3-3-3-3---5--5-5-5-5-5---3--3-3-3-3-3---5--5-5-5-5-5-|
b--0--0-0-0-0-0---0--0-0-0-0-0---0--0-0-0-0-0---0--0-0-0-0-0-|
g--0--0-0-0-0-0---0--0-0-0-0-0---0--0-0-0-0-0---0--0-0-0-0-0-|
d--2--2-2-2-2-2---4--4-4-4-4-4---2--2-2-2-2-2---4--4-4-4-4-4-|
a--3--3-3-3-3-3---5--5-5-5-5-5---3--3-3-3-3-3---5--5-5-5-5-5-|
e------------------------------------------------------------|

e--3--3-3-3-3-3---5--5-5-5-5-5----7--7-7-7--7--7-7-7---------|
b--0--0-0-0-0-0---0--0-0-0-0-0----0--0-0-0--0--0-0-0---------|
g--0--0-0-0-0-0---0--0-0-0-0-0----0--0-0-0--0--0-0-0---------|
d--2--2-2-2-2-2---4--4-4-4-4-4----5--5-5-5--5--5-5-5---------|
a--3--3-3-3-3-3---5--5-5-5-5-5----7--7-7-7--7--7-7-7---------|
e------------------------------------------------------------|

this ones for the friends....
e--3--3-3-3-3-3--3--3-3-3-3-3--3--3-3-3-3-3-3--3--3-3-3-3-3--|
b--0--0-0-0-0-0--0--0-0-0-0-0--0--0-0-0-0-0-0--0--0-0-0-0-0--|
g--0--0-0-0-0-0--0--0-0-0-0-0--0--0-0-0-0-0-0--0--0-0-0-0-0--|
d--0--0-0-0-0-0--2--2-2-2-2-2--2--2-2-2-2-2-2--2--2-2-2-2-2--|
a--2--2-2-2-2-2--0--0-0-0-0-0--2--2-2-2-2-2-2--3--3-3-3-3-3--|
e--3--3-3-3-3-3----------------0--0-0-0-0-0-0----------------|

e--3--3-3-3-3-3--3--3-3-3-3-3--3--3-3-3-3-3-3--3--3-3-3-3-3--|
b--0--0-0-0-0-0--0--0-0-0-0-0--0--0-0-0-0-0-0--0--0-0-0-0-0--|
g--0--0-0-0-0-0--0--0-0-0-0-0--0--0-0-0-0-0-0--0--0-0-0-0-0--|
d--0--0-0-0-0-0--2--2-2-2-2-2--2--2-2-2-2-2-2--2--2-2-2-2-2--|
a--2--2-2-2-2-2--0--0-0-0-0-0--2--2-2-2-2-2-2--3--3-3-3-3-3--|
e--3--3-3-3-3-3----------------0--0-0-0-0-0-0----------------|

this chord sequence is repeated til the end of the song

PLEASE RATE!!    

Added On December 4th, 2013

SHARE

Comments

blog comments powered by Disqus