Gojira Tabs

Death Of Me

1 versions

TAB

            #---------------------------------PLEASE NOTE------------------------------#
#This file is the author's own work and represents their interpretation of the#
#song. You may only use this file for private study, scholarship, or research.#
#--------------------------------------------------------------------------#
#- File created with Instab - http://www.pconline.com/~smcarey/instab.html #
#--------------------------------------------------------------------------#

Author/Artist: Gojira
Title: Death Of Me
Album: The Link
Transcribed by: Jaymz88
DGCFAD


----------------------------------------------------------------------------|
----------------------------------------------------------------------------|
----------------------------------------------------------------------------|
---------8-----7-----6-----5-----4------------------------------------------|
---------6-----5-----4-----3-----2------------------------------------------|
-0-0-0-0-6--0--5--0--4--0--3--0--2-0-0--------------------------------------|
 PM- - -    -     -     -     -    - -

----------------------------------------------------------------------------|
----------------------------------------------------------------------------|
--------3-3---------------------3-3---------------------3-3-----------------|
--0-0---3-3---0-0---3-3---0-0---3-3---0-0---3-3---0-0---3-3------------5----|
--0-0---1-1---0-0---1-1---0-0---1-1---0-0---1-1---0-0---1-1------------3----|
--0-0---0-0---0-0---0-0---0-0---0-0---0-0---0-0---0-0---0-0---3-2-1-0--3--2-|
 PM -   - -   - -   - -   - -   - -   - -   - -   - -   - -   - - - -     -

---------|------------------------------------------------------------------|
---------|------------------------------------------------------------------|
---------|------------3-3---------------------3-3---------------------3-3---|
---4-----|------0-0---3-3---0-0---3-3---0-0---3-3---0-0---3-3---0-0---3-3---|
---2-----|------0-0---1-1---0-0---1-1---0-0---1-1---0-0---1-1---0-0---1-1---|
-1-2-----|------0-0---0-0---0-0---0-0---0-0---0-0---0-0---0-0---0-0---0-0---|
 -            PM---   - -   - -   - -   - -   - -   - -   - -   - -   - -

--------------------------------------|--------------------------------------|
--------------------------------------|--------------------------------------|
--------------------------------------|--------------------------------------|
----------5-------4-------5-------4---|-------------/6/----------------------|
----------3-------2-------3-------2---|-------------/4/---------3------------|
-3-2-1-0--3--2-1--2--3-2--3--2-1--2---|--1-1-2-3-1--/4/--1-2-3--3--1-1-2-3-1-|
 - - - -     - -     - -     - -         - - - - -       - - -     - - - - -

-----------------------------------------------------------------------------|
-----------------------------------------------------------------------------|
-----------------------------------------------------------------------------|
-/6/-----------------------/6/-----------------------------------------------|6/
-/4/---------3-------------/4/---------3-------------------------------------|4/
-/4/--1-2-3--3--1-1-2-3-1--/4/--1-2-3--3--1-1-1-2-2-2-3-3-3-2-2-2-1-1-1------|4/
      - - -     - - - - -       - - -     - - - - - - - - - - - - - - -

-----------------------------------------------------------------------------|
-----------------------------------------------------------------------------|
-----------------------------------------------------------------------------|
----------------------/6/-----------------------/6/--------------------------|
--------3-------------/4/---------3-------------/4/---------3----------------|
-1-2-3--3--1-1-2-3-1--/4/--1-2-3--3--1-1-2-3-1--/4/--1-2-3--3--1-1-1-2-2-2-3-|
 - - -     - - - - -       - - -     - - - - -       - - -     - - - - - - -

-----------------------------------------------------------------------------|
-----------------------------------------------------------------------------|
-----------------------------------------------------------------------------|
------------------/6/-----------------------/6/-----------------------/6/----|
------------------/4/---------3-------------/4/---------3-------------/4/----|
-3-3-2-2-2-1-1-1--/4/--1-2-3--3--1-1-2-3-1--/4/--1-2-3--3--1-1-2-3-1--/4/--1-|
 - - - - - - - -       - - -     - - - - -       - - -     - - - - -       -

----------------------------------------------------------------------------|
----------------------------------------------------------------------------|
----------------------------------------------------------------------------|
----------6--9--8----6--9--8---------------------------------/6/------------|
------3---x--x--x----x--x--x---------------------------------/4/---------3--|
-2-3--3---4--7--6----4--7--6--1-1-1-2-2-2-3-3-3-2-2-2-1-1-1--/4/--1-2-3--3--|
 - -                          - - - - - - - - - - - - - - -       - - -

----------------------------------------------------------------------------|
----------------------------------------------------------------------------|
----------------------------------------------------------------------------|
------------/6/-----------------------/6/-------------6--9--8----6--9--8--9-|
------------/4/---------3-------------/4/---------3---x--x--x----x--x--x--x-|
-1-1-2-3-1--/4/--1-2-3--3--1-1-2-3-1--/4/--1-2-3--3---4--7--6----4--7--6--7-|
 - - - - -       - - -     - - - - -       - - -

----------------------------------------------------------------------------|
----------------------------------------------------------------------------|
----------------------------------------------------------------------------|
-12-11---12-11--12---3------------------------------------------------------|
--x--x----x--x---x---1------------------------------------------------------|
-10--9---10--9--10---0------------------------------------------------------|


----------------------------------------------------------------------------|
----------------------------------------------------------------------------|
----------------------------------------------------------------------------|
-----------------------------------------------------------------------x4---|
--17-17---17-17-17-17-17-17-17-17--17-17---17-17--20-20--21-21--------------|
----------------------------------------------------------------------------|


----------------------------------------------------------------------------|
----------------------------------------------------------------------------|
----------------------------------------------------------------------------|
-----------------------------------------------------------------------x4---|
----------------1-1-1-1-1----------1-1----------2-2-2-2-2-2--1-1-1-1--------|
--0-0-0-0--4-4-------------0-0-4-4------0-0-4-4-----------------------------|


----------------------------------------------------------------------------|
----------------------------------------------------------------------------|
----------------------------------------------------------------------------|
-----------------------------------------------------------------------x4---|
--17-17---17-17-17-17-17-17-17-17--17-17---17-17--20-20--21-21--------------|
----------------------------------------------------------------------------|

----------------------------------------------------------------------------|
----------------------------------------------------------------------------|
----------------------------------------------------------------------------|
-----------------------------------------------------------------------x4---|
----------------1-1-1-1-1----------1-1----------2-2-2-2-2-2--1-1-1-1--------|
--0-0-0-0--4-4-------------0-0-4-4------0-0-4-4-----------------------------|

----------------------------------------------------------------------------|
----------------------------------------------------------------------------|
--------------------------------------3-3---------------------3-3-----------|
--3----3---3-----3-----3--------0-0---3-3---0-0---3-3---0-0---3-3-----------|
--1----1---1-----1-----1--0-0---0-0---1-1---0-0---1-1---0-0---1-1-----------|
--0----0---0--0--0--0--0--0-0---0-0---0-0---0-0---0-0---0-0---0-0--3-2-1-0--|
              -     -     - -   - -   - -   - -   - -   - -   - -  - - - -

------------|---------------------------------------------------------------|
------------|---------------------------------------------------------------|
------------|--------3-3---------------------3-3---------------------3-3----|
-5-------4--|--0-0---3-3---0-0---3-3---0-0---3-3---0-0---3-3---0-0---3-3----|
-3-------2--|--0-0---1-1---0-0---1-1---0-0---1-1---0-0---1-1---0-0---1-1----|
-3--2-1--2--|--0-0---0-0---0-0---0-0---0-0---0-0---0-0---0-0---0-0---0-0--3-|
    - -        - -   - -   - -   - -   - -   - -   - -   - -   - -   - -  -

-------------------|--------------------------------------------------------|
-------------------|--------------------------------------------------------|
-------------------|--------------------------------------------------------|
--------5-------4--|-------------/6/-----------------------/6/--------------|
--------3-------2--|-------------/4/---------3-------------/4/---------3----|
-2-1-0--3--2-1--2--|--1-1-2-3-1--/4/--1-2-3--3--1-1-2-3-1--/4/--1-2-3--3--1-|
 - - -     - -        - - - - -       - - -     - - - - -       - - -     -

-----------------------------------------------------------------------------|
-----------------------------------------------------------------------------|
-----------------------------------------------------------------------------|
----------/6/-------------------------------------------/6/------------------|
----------/4/---------3---------------------------------/4/---------3--------|
-1-2-3-1--/4/--1-2-3--3--1-1-1-2-2-2-3-3-3-2-2-2-1-1-1--/4/--1-2-3--3--1-1-2-|
 - - - -       - - -     - - - - - - - - - - - - - - -       - - -     - - -

-----------------------------------------------------------------------------|
-----------------------------------------------------------------------------|
-----------------------------------------------------------------------------|
------/6/-----------------------/6/------------------------------------------|
------/4/---------3-------------/4/---------3--------------------------------|
-3-1--/4/--1-2-3--3--1-1-2-3-1--/4/--1-2-3--3--1-1-1-2-2-2-3-3-3-2-2-2-1-1-1-|
 - -       - - -     - - - - -       - - -     - - - - - - - - - - - - - - -

-----------------------------------------------------------------------------|
-----------------------------------------------------------------------------|
-----------------------------------------------------------------------------|
-/6/-----------------------/6/-----------------------/6/-------------6--9--8-|
-/4/---------3-------------/4/---------3-------------/4/---------3---x--x--x-|
-/4/--1-2-3--3--1-1-2-3-1--/4/--1-2-3--3--1-1-2-3-1--/4/--1-2-3--3---4--7--6-|
      - - -     - - - - -       - - -     - - - - -       - - -

---------------------------------------------------------------------------|
---------------------------------------------------------------------------|
---------------------------------------------------------------------------|
-6--7--8---------------------------------3---------------------------------|
-x--x--x---------------------------------1---------------------------------|
-4--7--6--1-1-1-2-2-2-3-3-3-2-2-2-1-1-1--0---------------------------------|
          - - - - - - - - - - - - - - -

------------------------|----------------------------------------------------|
------------------------|----------------------------------------------------|
------------------------|----------------------------------------------------|
-3--------3--------3----|----------------------------------------------------|
-1--------1--------1----|---2-2-----2-2-----2-2-----2-2----1-1-----1-1-----1-|
-0--------0--------0----|-------4-4-----0-0-----4-4------------4-4-----0-0---|
                          PM- - - - - - - - - - - - - -    - - - - - - - - -

------------|---------------------------------------------------------------|
------------|---------------------------------------------------------------|
------------|-------7-7-7-7-7-7-7-7-7-7-------------------------------------|
------------|------------------------------------------2--------------------|
-1-----1-1--|--0-0------------------------2-2-----2-2--2----------1-1-------|
---4-4------|--0-0----------------------------4-4------0---------------4-4--|
 - - - - -   PM- -  harm- - - - - - - -   - -  - -- -             - -  - -

----------------------------------------------------------------------------|
----------------------------------------------------------------------------|
----------------------------------------------------------------------------|
-3-------------------2----------------3--------3------3-----3---------------|
-1------2-2-----2-2--2-------1-1------1--------1------1-----1------0-0--1-1-|
-0----------4-4------0-----------4-4--0--------0------0-----0------0-0--1-1-|
        - - - - - -          - - - -                             PM- -  - -

----------------------------------------------------------------------------|
----------------------------------------------------------------------------|
----------------------------------------------------------------------------|
----------------------------------------------------------------------------|
-2-2--1-1--0-0-1-1----------------------------------------------------------|
-2-2--1-1--0-0-1-1----------------------------------------------------------|
 - -  - -  - - - -    

Added On December 16th, 2013

SHARE

Comments

blog comments powered by Disqus

ADVERTISEMENT