Gojira Tabs

From The Sky

2 versions

TAB

            #---------------------------------PLEASE NOTE------------------------------#
#This file is the author's own work and represents their interpretation of the#
#song. You may only use this file for private study, scholarship, or research.#
#--------------------------------------------------------------------------#
#-- File created with Instab -http://www.pconline.com/~smcarey/instab.html #
#--------------------------------------------------------------------------#

Author/Artist: Gojira
Title: From The Sky
Album: From Mars To Sirius
Transcribed by: Jaymz88
DGCFAD
best band since metallica and awesome song.

----------------------------------------------------------------------------|
----------------------------------------------------------------------------|
----------------------------------------------------------------------------|
--2-2-2-2--5-5-5-5--4-4-4-4-4-4-4-4--7-7-7-7-7-7--5-5-5-5--4-4-4-4----------|
--2-2-2-2--x-x-x-x--x-x-x-x-x-x-x-x--x-x-x-x-x-x--x-x-x-x--x-x-x-x----------|
--0-0-0-0--3-3-3-3--2-2-2-2-2-2-2-2--5-5-5-5-5-5--3-3-3-3--2-2-2-2----------|


----------------------------------------------------------------------------|
----------------------------------------------------------------------------|
----------------------------------------------------------------------------|
--2-2-2-2--5-5-5-5--4-4-4-4-4-4-4-4-------------------------------x4--------|
--2-2-2-2--x-x-x-x--x-x-x-x-x-x-x-x-----------------------------------------|
--0-0-0-0--3-3-3-3--2-2-2-2-2-2-2-2---3h5--5--3--2--7----3--2---------------|
                                   PM - -  -  -  -  -    -  -


----------------------------------------------------------------------------|
----------------------------------------------------------------------------|
----------------------------------------------------------------------------|
----------------------------------------------------------------------------|
----------------------------------------------------------------------------|
--0--2--3--0--2--3--0--2--3--0--2--3----------------------------------------|
  -  -  -  -  -  -  -  -  -  -  -  -


--------x--------x--------x--------x--------x--------x--------x--------x----|
--------x--------x--------x--------x--------x--------x--------x--------x----|
--------x--------x--------x--------x--------x--------x--------x--------x----|
--------x--------x--------x--------x--------x--------x--------x--------x----|
--------x--------x--------x--------x--------x--------x--------x--------x----|
--0--0-----0--0-----0--0-----0--0-----0--0-----0--0-----0--0-----0--0-------|
      A.H       A.H      A.H      A.H      A.H      A.H      A.H      A.H

----------------------------------------------------------------------------|
----------------------------------------------------------------------------|
-------5--------5---------5--------5--------5---------4--------4--------4---|
-------5--------5---------5--------5--------5---------4--------4--------4---|
-------3--------3---------3--------3--------3---------2--------2--------2---|
-0--0-----0--0------0--0-----0--0-----0--0------0--0-----0--0-----0--0----0-|
 -  -     -  -      -  -     -  -     -  -      -  -     -  -     -  -    -

----------------------------------------------------------------------------|
----------------------------------------------------------------------------|
----4--------4--------------------------------------------------------------|
----4--------4--------------------------------------------------------------|
----2--------2--------------------------------------------------------------|
-0-----0--0-----------------------------------------------------------------|
 -     -  -


----------------------------------------------------------------------------|
----------------------------------------------------------------------------|
----------------------------------------------------------------------------|
--2-2-2-2--5-5-5-5--4-4-4-4-4-4-4-4--7-7-7-7-7-7--5-5-5-5--4-4-4-4----------|
--2-2-2-2--x-x-x-x--x-x-x-x-x-x-x-x--x-x-x-x-x-x--x-x-x-x--x-x-x-x----------|
--0-0-0-0--3-3-3-3--2-2-2-2-2-2-2-2--5-5-5-5-5-5--3-3-3-3--2-2-2-2----------|


----------------------------------------------------------------------------|
----------------------------------------------------------------------------|
----------------------------------------------------------------------------|
--2-2-2-2--5-5-5-5--4-4-4-4-4-4-4-4-----------------------------------------|
--2-2-2-2--x-x-x-x--x-x-x-x-x-x-x-x-----------------------------------------|
--0-0-0-0--3-3-3-3--2-2-2-2-2-2-2-2---3h5--5--3--2--7----3--2---------------|
                                   PM - -  -  -  -  -    -  -


----------------------------------------------------------------------------|
----------------------------------------------------------------------------|
-------5--------5---------5--------5--------5---------4--------4--------4---|
-------5--------5---------5--------5--------5---------4--------4--------4---|
-------3--------3---------3--------3--------3---------2--------2--------2---|
-0--0-----0--0------0--0-----0--0-----0--0------0--0-----0--0-----0--0----0-|
 -  -     -  -      -  -     -  -     -  -      -  -     -  -     -  -    -

----------------------------------------------------------------------------|
----------------------------------------------------------------------------|
----4--------4--------------------------------------------------------------|
----4--------4--------------------------------------------------------------|
----2--------2--------------------------------------------------------------|
-0-----0--0-----------------------------------------------------------------|
 -     -  -


----------------------------------------------------------------------------|
----------------------------------------------------------------------------|
----------------------------------------------------------------------------|
--2-2-2-2--5-5-5-5--4-4-4-4-4-4-4-4--7-7-7-7-7-7--5-5-5-5--4-4-4-4----------|
--2-2-2-2--x-x-x-x--x-x-x-x-x-x-x-x--x-x-x-x-x-x--x-x-x-x--x-x-x-x----------|
--0-0-0-0--3-3-3-3--2-2-2-2-2-2-2-2--5-5-5-5-5-5--3-3-3-3--2-2-2-2----------|


----------------------------------------------------------------------------|
----------------------------------------------------------------------------|
----------------------------------------------------------------------------|
--2-2-2-2--5-5-5-5--4-4-4-4-4-4-4-4-----------------------------------------|
--2-2-2-2--x-x-x-x--x-x-x-x-x-x-x-x-----------------------------------------|
--0-0-0-0--3-3-3-3--2-2-2-2-2-2-2-2---3h5--5--3--2--7----3--2---------------|
                                   PM - -  -  -  -  -    -  -

----------------------------------------------------------------------------|
----------------------------------------------------------------------------|
----------------------------------------------------------------------------|
----------------------------------------------------------------------------|
-8--------8--8------8-8-8-7-7-7-6-6-6---8--------8--8-----8-8-8-7-7-7-6-6-6-|
-7--0--0--7--7---0----------------------7--0--0--7--7--0--------------------|
    -  -         -  - - - - - - - - -      -  -        -  - - - - - - - - -

----------------------------------------------------------------------------|
----------------------------------------------------------------------------|
----------------------------------------------------------------------------|
----------------------------------------------------------------------------|
-8--------8--8------8-8-8-7-7-7-6-6-6--8--------8--8----8-8-8-7-7-7-6-6-6-8-|
-7--0--0--7--7---0---------------------7--0--0--7--7--0---------------------|
    -  -         -  - - - - - - - - -     -  -        - - - - - - - - - - -

-----------------------------------------------------------------------------|
-----------------------------------------------------------------------------|
-----------------------------------------------------------------------------|
-----------------------------------------------------------------------------|
-8-8-7-7-7-6-6-6--8-8-8-7-7-7-6-6-6--7-7-7-6-6-6-5-5-5--8--------8--8----8-8-|
--------------------------------------------------------7--0--0--7--7--0-----|
 - - - - - - - -  - - - - - - - - -  - - - - - - - - -     -  -        - - -

-----------------------------------------------------------------------------|
-----------------------------------------------------------------------------|
-----------------------------------------------------------------------------|
-----------------------------------------------------------------------------|
-8-7-7-7-6-6-6--8--------8--8-----8-8-8-7-7-7-6-6-6--8--------8--8-----8-8-8-|
----------------7--0--0--7--7--0---------------------7--0--0--7--7--0--------|
 - - - - - - -     -  -        -  - - - - - - - - -     -  -        -  - - -

-----------------------------------------------------------------------------|
-----------------------------------------------------------------------------|
-----------------------------------------------------------------------------|
----------------------9--9--9---9--9--9--9-----------------------------------|
-7-7-7-6-6-6---8--8---8--8--8---8--8--8--8--8--------8--8----8-8-8-7-7-7-6-6-|
---------------7--7---7--7--7---7--7--7--7--7--0--0--7--7--0-----------------|
 - - - - - -                                   -  -        - - - - - - - - -

----------------------------------------------------------------------------|
----------------------------------------------------------------------------|
----------------------------------------------------------------------------|
----------------------------------------------------------------------------|
-6--8--------8--8------8-8-8-7-7-7-6-6-6--8-----8--8-----8-8-8-7-7-7-6-6-6--|
----7--0--0--7--7---0---------------------7--0--7--7--0---------------------|
 -     -  -         -  - - - - - - - - -     -        -  - - - - - - - - -

----------------------------------------------------------------------------|
----------------------------------------------------------------------------|
----------------------------------------------------------------------------|
-----------9--9--9--9-9-----------------------------------------------------|
-8--8--8---8--8--8--8-8-----------------------------------------------------|
-7--7--7---7--7--7--7-7-----------------------------------------------------|


----------------------------------------------------------------------------|
----------------------------------------------------------------------------|
-------5--------5---------5--------5--------5---------4--------4--------4---|
-------5--------5---------5--------5--------5---------4--------4--------4---|
-------3--------3---------3--------3--------3---------2--------2--------2---|
-0--0-----0--0------0--0-----0--0-----0--0------0--0-----0--0-----0--0----0-|
 -  -     -  -      -  -     -  -     -  -      -  -     -  -     -  -    -

----------------------------------------------------------------------------|
----------------------------------------------------------------------------|
----4--------4--------------------------------------------------------------|
----4--------4--------------------------------------------------------------|
----2--------2--------------------------------------------------------------|
-0-----0--0-----------------------------------------------------------------|
 -     -  -


----------------------------------------------------------------------------|
----------------------------------------------------------------------------|
--5-5-5-5-5-5-5-5-5-5-5-5--4-4-4-4-4-4-4-4-4-4-4-4--------------------------|
--x-x-x-x-x-x-x-x-x-x-x-x--x-x-x-x-x-x-x-x-x-x-x-x--2-2-2-2-2-2-2-2-2-2-2-2-|
--3-3-3-3-3-3-3-3-3-3-3-3--2-2-2-2-2-2-2-2-2-2-2-2--2-2-2-2-2-2-2-2-2-2-2-2-|
----------------------------------------------------0-0-0-0-0-0-0-0-0-0-0-0-|


-----------------------------------------------------------------------------|
-----------------------------------------------------------------------------|
-----------------------------------------------------------------------------|
--2-2-2-2-2-2-2-2-2--5-5-5-5-5-5-5-5-5-5-5--4-4-4-4-4-4-4-4-4--2-2-2-2-2-2-2-|
--2-2-2-2-2-2-2-2-2--x-x-x-x-x-x-x-x-x-x-x--x-x-x-x-x-x-x-x-x--2-2-2-2-2-2-2-|
--0-0-0-0-0-0-0-0-0--3-3-3-3-3-3-3-3-3-3-3--2-2-2-2-2-2-2-2-2--0-0-0-0-0-0-0-|


-----------------------------------------------------------------------------|
-----------------------------------------------------------------------------|
-----------------------------------------------------------------------------|
-----3-----3-----3-----3------3------3------3------3------2------2-----2-----|
---2-----2-----2-----2------2------2------2------2------2------2-----2-----2-|
-1-----1-----1-----1------3------3------3------3------0------0-----0-----0---|


-----------------------------------------------------------------------------|
-----------------------------------------------------------------------------|
-----------------------------------------------------------------------------|
--2------3------3-----3-----3------3-----3---5/3/2------3-----3--5/3/2-----2-|
-------2-----2------2-----2------2-----2--------------2-----2------------2---|
-----1-----1------1-----1------1-----1--------------3-----3------------0-----|

                           (Bass part)
-------------------------|-------------------------------------------------|
-------------------------|-------------------------------------------------|
-------------------------|-------------------------------------------------|
-----2------2-------2----|-------------------------------------------------|
---2------2------2-------|-------------------------------------------------|
-0-----0-------0---------|----3--------5--------7----------3----------1----|


----------------------------------------------------------------------------|
----------------------------------------------------------------------------|
----------------------------------------------------------------------------|
----------------------------------------------------------------------3-3-3-|
----------------------------------------------2-2-2--------2-2-2-3-3--x-x-x-|
-0-0-0-0-0-0-0-0-0-0-0-0-0--3-3-3-3-3-3-3-3-3--------3-3-3------------1-1-1-|
 - - - - - - - - - - - - -

----------------------------------------------------------------------------|
----------------------------------------------------------------------------|
------------5-5-5-5--7-7-7-7-------------------9-9-9-9-9-9------------------|
-3-3-3-3-3--x-x-x-x--x-x-x-x--2-2-2-2-2-2-2-2--x-x-x-x-x-x--2-2-2-2-2-2-2-2-|
-x-x-x-x-x--3-3-3-3--5-5-5-5--2-2-2-2-2-2-2-2--7-7-7-7-7-7--2-2-2-2-2-2-2-2-|
-1-1-1-1-1--------------------0-0-0-0-0-0-0-0---------------0-0-0-0-0-0-0-0-|


----------------------------------------------------------------------------|
----------------------------------------------------------------------------|
-10-10-10-10-10-10----------------------------------------------------------|
--x--x--x--x--x--x----------------------------------------------------------|
--8--8--8--8--8--8----------------------------------------------------------|
----------------------------------------------------------------------------|

----------------------------------------------------------------------------|
----------------------------------------------------------------------------|
----------------------------------------------------------------------------|
--2-2-2-2--5-5-5-5--4-4-4-4-4-4-4-4--7-7-7-7-7-7--5-5-5-5--4-4-4-4----------|
--2-2-2-2--x-x-x-x--x-x-x-x-x-x-x-x--x-x-x-x-x-x--x-x-x-x--x-x-x-x----------|
--0-0-0-0--3-3-3-3--2-2-2-2-2-2-2-2--5-5-5-5-5-5--3-3-3-3--2-2-2-2----------|


----------------------------------------------------------------------------|
----------------------------------------------------------------------------|
----------------------------------------------------------------------------|
--2-2-2-2--5-5-5-5--4-4-4-4-4-4-4-4-----------------------------------------|
--2-2-2-2--x-x-x-x--x-x-x-x-x-x-x-x-----------------------------------------|
--0-0-0-0--3-3-3-3--2-2-2-2-2-2-2-2---3h5--5--3--2--7----3--2---------------|
                                   PM - -  -  -  -  -    -  -    

Added On December 16th, 2013

SHARE

Comments

blog comments powered by Disqus

VERSIONS

ADVERTISEMENT