Gojira Tabs

Global Warming

1 versions

TAB

            Global Warming Tab by Gojira


#----------------------------------PLEASE NOTE--------------------------------#
#This file is the author's own work and represents their interpretation of the#
#song. You may only use this file for private study, scholarship, or research.#
#-----------------------------------------------------------------------------#
#-- File created with Instab - http://www.pconline.com/~smcarey/instab.html --#
#-----------------------------------------------------------------------------#

Author/Artist: Gojira
Title: Global Warming
Album: From Mars To Sirius
Transcribed by: Jaymz88
Drop D

(Bien appuyer le tapping en plier à moitié la corde avec la main droite)
-----------------------------------------------------------------------------|
-----------------------------------------------------------------------------|
-t16p1h4-t16p1h4-t16p1h4-t16p1h4-t16p1h4-t16p1h4-t16p1h4-t16p1h4-t16p1h4-----|
-----------------------------------------------------------------------------|
-----------------------------------------------------------------------------|
-----------------------------------------------------------------------------|

-----------------------------------------------------------------------------|
-----------------------------------------------------------------------------|
-t15p1h3-t15p1h3-t15p1h3-t15p1h3-t15p1h3-t15p1h3-t15p1h3-t15p1h3-------------|
-----------------------------------------------------------------t15p1h3-----|
-----------------------------------------------------------------------------|
-----------------------------------------------------------------------------|

----------------------------------------------------------|------------------|
----------------------------------------------------------|------------------|
----------------------------------------------------------|------------------|
-t15p1h3-t15p1h3-t16p1h4-t16p1h4-t15p1h3-t16p1h4-t15p1h3--|------------------|
----------------------------------------------------------|------------------|
----------------------------------------------------------|------------------|

(pas la première fois, écouter le cd)
-----------------------------------------------------------------------------|
-----------------------------------------------------------------------------|
--t13p1h3-t13p1h3-t13p1h3-t11p1h3-t11p1h3-t10p1h3-t11p1h3-t10p1h3------------|
-----------------------------------------------------------------------------|
-----------------------------------------------------------------------------|
-----------------------------------------------------------------------------|


------------------------------------------------------------------------------|
------------------------------------------------------------------------------|
------------------------------------------------------------------------------|
-1------------1----------------1--------------------------1-------------------|
-1---2--------1---1------------1-----2-----1---1---1-1----1-----2-----1---1---|
---0-4----------0-2--2-2-4-4-4---0-0-4-0-0-2-0-1-0-1-1------0-0-4-0-0-2-0-1-0-|
   -            -                ---   ---   -   -          ---   --    -   -
--------------------------------------------------------x--------------------|
--------------------------------------------------------x--------------------|
--------------------------------------------------------x--------------------|
--------1--------------------------1--------------------x--------------------|
-1-1----1-----2-----1---1---1-1----1------2-----1---1---x--------------------|
-1-1------0-0-4-0-0-2-0-1-0-1-1-------0-0-4-0-0-2-0-1-0----------------------|
          --    ---   -   -           ---   ---   -   -
                                                   (En remontant avec le côté
                                                    du médiator et en étouffant)

Baisser le tapping sur la fin de la chanson
-----------------------------------------------------------------------------|
-----------------------------------------------------------------------------|
-t16p1h4-t16p1h4-t16p1h4-t16p1h4-t16p1h4-t16p1h4-t16p1h4-t16p1h4-t16p1h4-----|
-----------------------------------------------------------------------------|
-----------------------------------------------------------------------------|
-----------------------------------------------------------------------------|

-----------------------------------------------------------------------------|
-----------------------------------------------------------------------------|
-t15p1h3-t15p1h3-t15p1h3-t15p1h3-t15p1h3-t15p1h3-t15p1h3-t15p1h3-------------|
-----------------------------------------------------------------t15p1h3-----|
-----------------------------------------------------------------------------|
-----------------------------------------------------------------------------|

----------------------------------------------------------|------------------|
----------------------------------------------------------|------------------|
----------------------------------------------------------|------------------|
-t15p1h3-t15p1h3-t16p1h4-t16p1h4-t15p1h3-t16p1h4-t15p1h3--|------------------|
----------------------------------------------------------|------------------|
----------------------------------------------------------|------------------|


-----------------------------------------------------------------------------|
-----------------------------------------------------------------------------|
--t13p1h3-t13p1h3-t13p1h3-t11p1h3-t11p1h3-t10p1h3-t11p1h3-t10p1h3------------|
-----------------------------------------------------------------------------|
-----------------------------------------------------------------------------|
-----------------------------------------------------------------------------|


(Clean w/delay en étouffant de la main gauche)
-----------------------------------------------------------------------------|
-----------------------------------------------------------------------------|
--t16hx-t16hx-t16hx-t16hx-t16hx-t16hx-t16hx-t16hx-t16hx-t16hx-t16hx-t16hx----|
-----------------------------------------------------------------------------|
-----------------------------------------------------------------------------|
-----------------------------------------------------------------------------|


-----------------------------------------------------------------------------|
-----------------------------------------------------------------------------|
--t15hx-t15hx-t15hx-t15hx-t15hx-t15hx-t15hx-t15hx-t15hx-t15hx-t15hx-t15hx----|
-----------------------------------------------------------------------------|
-----------------------------------------------------------------------------|
-----------------------------------------------------------------------------|

-----------------------------------------------------------------------------|
-----------------------------------------------------------------------------|
-----------------------------------------------------------------------------|
--t16hx-t16hx-t16hx-t16hx-t16hx-t16hx-t16hx-t16hx-t16hx-t16hx-t16hx-t16hx----|
-----------------------------------------------------------------------------|
-----------------------------------------------------------------------------|

-----------------------------------------------------------------------------|
-----------------------------------------------------------------------------|
--t18hx-t18hx-t18hx-t18hx-t18hx-t18hx-t18hx-t18hx-t18hx-t18hx-t18hx-t18hx----|
-----------------------------------------------------------------------------|
-----------------------------------------------------------------------------|
-----------------------------------------------------------------------------|

-----------------------------------------------------------------------------|
-----------------------------------------------------------------------------|
--t16hx-t16hx-t16hx-t16hx-t16hx-t16hx-t16hx-t16hx-t16hx-t16hx-t16hx-t16hx----|
-----------------------------------------------------------------------------|
-----------------------------------------------------------------------------|
-----------------------------------------------------------------------------|    

Added On December 4th, 2013

SHARE

Comments

blog comments powered by Disqus

ADVERTISEMENT