Gojira Tabs

Remembrance

2 versions

TAB

            #---------------------------------PLEASE NOTE-------------------------------#
#This file is the author's own work and represents their interpretation of the#
#song. You may only use this file for private study, scholarship, or research.#
#---------------------------------------------------------------------------#
#- File created with Instab - http://www.pconline.com/~smcarey/instab.html -#
#---------------------------------------------------------------------------#

Author/Artist: Gojira
Title: Remembrance
Album: The Link
Transcribed by: Jaymz88
DGCFAD

----------------------------------------------------------------------------|
----------------------------------------------------------------------------|
----------------------------------------------------------------------------|
----------------------------------------------------------------------------|
-4-2-4-2-4-2-4-2-1-2---4-2-4-2-4-2-4-2-2-1-2---1111111111-00-1111-22222222--|
-4-2-4-2-4-2-4-2-1-2---4-2-4-2-4-2-4-2-2-1-2---1111111111-00-1111-22222222--|


----------------------------------------------------------------------------|
----------------------------------------------------------------------------|
----------------------------------------------------------------------------|
----------------------------------------------------------------------------|
-1111-00---1111111111-00-1111-22222222-1111-00---1111111111-00-1111---------|
-1111-00---1111111111-00-1111-22222222-1111-00---1111111111-00-1111---------|


----------------------------------------------------------------------------|
----------------------------------------------------------------------------|
----------------------------------------------------------------------------|
----------------------------------------------------------------------------|
-22222222-1111-00--22-44-2222-1111-222222-111111----1111111111-00-1111------|
-22222222-1111-00--22-44-2222-1111-222222-111111----1111111111-00-1111------|


-----------------------------------------------------------------------------|
-----------------------------------------------------------------------------|
-----------------------------------------------------------------------------|
-----------------------------------------------------------------------------|
-222222222-1111-00---11111111111-00-1111-2222222222-111111-00--1111111111----|
-222222222-1111-00---11111111111-00-1111-2222222222-111111-00--1111111111----|


-------------------------------------------------0---------------------------|
-------------------------------------------------0---------------------------|
-------------------------------------------------0---------------------------|
-------------------------------------------------------3-3-3-----------------|
-00-1111-2222222222-1111-00--4-2-4-2-4-2-4-2-1-2-------1-1-1--0-1-2-1-0-1-2--|
-00-1111-2222222222-1111-00--4-2-4-2-4-2-4-2-1-2---0-0-1-1-1--0-1-2-1-0-1-2--|
                                                  PM--        ---------------|

---------------------------------------------|--------------------------------|
---------------------------------------------|--------------------------------|
---------------------------------------------|--------------------------------|
---------3-3-3-------------------------3-3-3-|------------------------3-3-3-3-|
-1-0-1-2-1-1-1---0-1-2-1-0-1-2-1-0-1-2-1-1-1-|--0-1-2-1-0-1-2-1-0-1-2-1-1-1-1-|
-1-0-1-2-1-1-1---0-1-2-1-0-1-2-1-0-1-2-1-1-1-|--0-1-2-1-0-1-2-1-0-1-2-1-1-1-1-|
 -------         ---------------------          ------------------------------|

--------|--------------------------------------------------------------------|
--------|--------------------------------------------------------------------|
--------|-------------------------------3-----3-----3-----3-----3-----3------|
-3-3----|----33333333333-22222222222----x-----x-----x-----x-----x-----x------|
-1-1----|----33333333333-22222222222----1-----1-----1-----1-----1-----1------|
-1-1----|-----------------------------0---0-0---0-0---0-0---0-0---0-0---0-0--|
          PM----------------------  -   ---   ---   ---   ---   ---   ---

-----------------------------------------------------------------------------|
-----------------------------------------------------------------------------|
-3/2------------------------------------------------------3-----3-----3------|
-x-x----5-----5-----5-----5/4--x4-------------------------x-----x-----x------|
-1/0----x-----x-----x-----x-x-----111111111100000000------1-----1-----1------|
------0-3-0-0-3-0-0-3-0-0-3/2-----111111111100000000----0---0-0---0-0---0-0--|
      -   ---   ---   ---         ------------------    -   ---   ---   ---

----------|--------------------------------------------------------------|---|
----------|--------------------------------------------------------------|---|
-3/5------|----0-----0-----0-----0-----0-----0---------------------------|---|
-x-x--x4--|--------------------------------------------------------------|---|
-1/3------|--------------------------------------------------------------|---|
----------|--4----4-----4-----4-----5-----5-------0-0-0-2/3-3-3-2-3-2-1b-|---|
                                                  -----

------------------------------------------------------------------------------|
------------------------------------------------------------------------------|
------------------------------------------------------------------------------|
------------------------------------------------------------------------------|
--xx--xx--xx--xx--xxxxxxx--xxxxxxx--xxxxxxxxxxxxxxx----xx--xx--xx-------------|
--xx--xx--xx--xx--xxxxxxx--xxxxxxx--xxxxxxxxxxxxxxx----xx--xx--xx-------------|
 PM---------------------------------------------------------------------------|

Follow the drums    

Added On December 16th, 2013

SHARE

Comments

blog comments powered by Disqus

VERSIONS

ADVERTISEMENT