Good Charlotte Tabs

Girls And Boys

8 versions

TAB

            Girls And Boys Chords by Good Charlotte

Artist: Good Charlotte
Song: Boys & Girls
Album: the young and the hopeless

Intro:
and the verse riff
e------------------------|
b------------------------|
g---5---7----------------|
d--------8---------------|
a--6---------------------|
e-4--6-------------------|


this is were you play the riff

He's well dressed not funny
And not to say in most conversations
But he'll foot the bill in all situations
'Cause he pays for everything

And for the Chorus you play
G#
G#
e |---|---|---|-x-|---|
B |-x-|---|---|---|---|
G |-x-|---|---|---|---|
D |-x-|---|---|---|---|
A |---|---|---|---|---|
E |---|---|---|---|---|
D#
D#
e |-x-|---|---|---|---|
B |---|-x-|---|---|---|
G |-x-|---|---|---|---|
D |---|---|-x-|---|---|
A |---|---|---|-x-|---|
E |---|---|---|---|---|
C#
C#
e |-x-|---|---|---|---|
B |---|-x-|---|---|---|
G |-x-|---|---|---|---|
D |---|---|-x-|---|---|
A |---|---|---|-x-|---|
E |---|---|---|---|---|
Girls don't like boys, girls like cars and money G#
G#
e |---|---|---|-x-|---|
B |-x-|---|---|---|---|
G |-x-|---|---|---|---|
D |-x-|---|---|---|---|
A |---|---|---|---|---|
E |---|---|---|---|---|
D#
D#
e |-x-|---|---|---|---|
B |---|-x-|---|---|---|
G |-x-|---|---|---|---|
D |---|---|-x-|---|---|
A |---|---|---|-x-|---|
E |---|---|---|---|---|
C#
C#
e |-x-|---|---|---|---|
B |---|-x-|---|---|---|
G |-x-|---|---|---|---|
D |---|---|-x-|---|---|
A |---|---|---|-x-|---|
E |---|---|---|---|---|
Boys will laugh at girls when they're not funny Paper or plastic, Don't matter she'll have it Vacations and shopping sprees these are a few of her favorite things She'll get what she wants if she's willing to please His type of girl always comes with a fee Hey now there's nothing for free Girls don't like boys, girls like cars and money Boys will laugh at girls when they're not funny And these girls like these boys, like these boys like these girls The girls with the bodies like boys with Ferraris Girls don't like boys, girls like cars and money Let's go! Girls don't like boys, girls like cars and money Boys will laugh at girls when they're not funny And these girls like these boys, like these boys like these girls The girls with the bodies like boys with Ferraris Girls don't like boys, girls like cars and money All of these boys, and get all of these girls Are losing their souls in a material world All of these boys, and get all of these girls Are losing their souls in a material world All of these boys, and get all of these girls Are losing their souls in a material world All of these boys, and get all of these girls Are losing their souls in a material world If you like Good Charlotte i might recomend Hoobastank, am Radio or phantom planet To Those about to rock... I fucking salute you // Tha City_power

Added On December 4th, 2013

SHARE

Comments

blog comments powered by Disqus