Good Charlotte Tabs

Seasons

2 versions

TAB

            Alright, This is a tab for the awesome song Seasons by GC. This is the first tab Ive ever done so enjoy it.

Intro-0:00-0:11
    C           G          F          C        G
|------------3-33-33-3-1-1-11-11-1-xx----------3--------|
|1-1-11-11-1-3-33-33-3-1-1-11-11-1-xx-11-------3--------|
|0-0-00-00-0-0-00-00-0-2-2-22-22-2-xx-00-------0--------|
|2-2-22-22-2-0-00-00-0-3-3-33-33-3-xx-22-------0--------|
|3-3-33-33-3-2-22-22-2----------------33-3h4p3-2--------|
|------------3-33-33-3-------------------------3--------|

0:11-0:57
     C          G          F          C         G      4X
|------------3-33-33-3-1-1-11-11-1-xx-----------3-------| 
|1-1-11-11-1-3-33-33-3-1-1-11-11-1-xx-11--------3-------|
|0-0-00-00-0-0-00-00-0-2-2-22-22-2-xx-00--------0-------|
|2-2-22-22-2-0-00-00-0-3-3-33-33-3-xx-22--------0-------|
|3-3-33-33-3-2-22-22-2----------------33--3h4p3-2-------|
|------------3-33-33-3--------------------------3-------|

0:57-1:09
|--------------------------------------------------------------|
|3~------------------------------------------------------------|
|--555555555555555-----------------------------------55-4h5p4--|
|--555555555555555-5555555555555555-3333333333333333-55------5-|
|--333333333333333-5555555555555555-3333333333333333-33------5-|
|------------------3333333333333333-1111111111111111---------3-|
PM++++++++++++++++++++++++++++++++++++++++++++++++++

1:09-1:20
|--------------------------------------------------------------|
|--------------------------------------------------------------|
|5555555555555555--------------------------------5-4h5p4-------|
|5555555555555555-555555555555555-33333333333333-5------5555555|
|3333333333333333-555555555555555-33333333333333-3------5555555|
|-----------------333333333333333-11111111111111--------3333333|
PM++++++++++++++++++++++++++++++++++++++++++++++

1:20-1:32
|------------------------------------------|
|------------------------------------------|
|2~------2~------2~------------------------|
|2~--2~--2~--2~--2~--2~-333333333/55555555-|
|0~--2~--0~--2~--0~--2~-333333333/55555555-|
|----0~------0~------0~-111111111/33333333-|

1:32-1:55                                                               2X
|-----------------------------------------------------------------|
|-----------------------------------------------------------------|
|5555555555555555--------------------------------55-4h5p4---------|
|5555555555555555-5555555555555555-33-xxx-333333-33------55555555-|
|3333333333333333-5555555555555555-33-xxx-333333-33------55555555-|
|-----------------3333333333333333-11-xxx-111111---------33333333-|

1:55-2:07
|-----------------------------|
|-----------------------------|
|5~---------------------------|
|5~------5~-----7~-----3~--5~-|
|3~------5~-----7~-----3~--5~-|
|--------3~-----5~-----1~--3~-|

2:07-2:18
|--------------------------------------------------------|
|--------------------------------------------------------|
|5555555555555555----------------------------------------|
|5555555555555555-5555555555555555-2222222222222222-3~/5~|
|3333333333333333-5555555555555555-2222222222222222-3~/5~|
|-----------------3333333333333333-0000000000000000-1~/3~|
PM+++++++++++++++++++++++++++++++++++++++++++++++++

2:18-2:41                                                   2X
|--------------------------------------------------------------|
|--------------------------------------------------------------|
|5555555555555555-------------------------------55-4h5p4-------|
|5555555555555555-5555555555555555-33-XXX-33333-55-------55555-|
|3333333333333333-5555555555555555-33-XXX-33333-33-------55555-|
|-----------------3333333333333333-11-XXX-11111----------33333-|

2:41-3:04                                                                  2X
|---------------------------------------------------------------------|
|---------------------------------------------------------------------|
|555555555555555------------------------------------55555555----------|
|555555555555555-55555555555555555-3333333333333333-55555555-55555555-|
|333333333333333-55555555555555555-3333333333333333-33333333-55555555-|
|----------------33333333333333333-1111111111111111----------33333333-|
3:04-3:15
|-----|
|-----|
|5~~~~|
|5~~~~|
|3~~~~|
|-----|    

Added On December 16th, 2013

SHARE

Comments

blog comments powered by Disqus

VERSIONS

ADVERTISEMENT