Grin Department Tabs

Sabay Hug

1 versions

TAB

            Song:Sabay Hug
Artist:Grin Department
Date Tabbed:May,2007
Guitar Tabber:Ryan Manongdo/17/m/Montalban Rizal
              no_falter0x@yahoo.com(Friendster&YM)
              
For your questions or suggestions,just PM or Text me!!
Please Rate...

Gtr.Tuning:Standard(Normal)

Intro prt.1:
e|---------------------------|
B|---------------------------|
G|---------------------------| 4x
D|----4-----4-----4--44-66---|
A|-------------11----22-44---|
E|-22----11------------------|

Intro prt.2
Gtr.1
e|------------------------      --------|
B|------------------------      --------|
G|------------------------ 2x   --------|
D|------------33333-44-66- Then ---4~---|
A|-4444-33333-11111-22-44-      ---4~---|
E|-2222-11111-------------      ---2~---|

Gtr.2:Play Intro prt.1

Verse:Play Intro prt.1

Repeat this prt. Until the song Fades out...
Gtr.1
e|--------------------------|
B|--------------------------|
G|--------------------------|
D|------------33333-44-66---|
A|-4444-33333-11111-22-44---|
E|-2222-11111---------------|

Gtr.2
e|---------------------------|
B|---------------------------|
G|---------------------------| 4x
D|----4-----4-----4--44-66---|
A|-------------11----22-44---|
E|-22----11------------------|

End...    

Added On December 16th, 2013

SHARE

Comments

blog comments powered by Disqus

ADVERTISEMENT