Gwar Tabs

Sick of You

3 versions

TAB

            Sick Of You Tab by Gwar


this is straight from gwar's website.  i usually don't post
tabs i didn't do myself but i don't think you can get any
closer than this.
-----negative1


Sick of You
Scumdogs
Well, first off, GWAR tunes their instruments down ½ step. 


Here's the first riff

 F#
  pm..]          pm..]
|-------0---------------2---------|   play this a couple 
|-------0---0-----------2---2-----|        times.
|-------------3---------------3---|
|---------------------------------|
|-4-4-4----------4-4-4------------|
|-2-2-2----------2-2-2------------|

Then the rhythm guitar (Balsac) plays palm-muted F#5 chords (power chord on the 2nd 
fret of low E string, that is) while the lead guitar (Flattus) 
plays:

|--2--2--------------------------|He plays this (or slight
|--------2--5--2-----------------| variations thereof)a few 
|--------------------4--4--2-----| times.
|-----------------------------4--|
|--------------------------------|
|--------------------------------|

The verses are just palm-muted F#5 chords.  The chorus goes like this:

|--------------------------------------------------|
|--------------------------------------------------|
|--------------------------------------------------|
|-------6----7-6-4-2------------6---6---4---6--6---|
|--4----4----5-4-2-0----4---4---4---4---2---4--4---|
|--2--------------------2---2----------------------|
   Sick of   yoooooou  I'm  so sick so sick of you

Now for the "I said break it down!"

|------5----5--4-----4--2-----|
|-2/4-------------2-----------|
|-----------------------------|
|-----------------------------|
|-----------------------------|
|-----------------------------|

Well there it is, Sick Of U, and I think it is pretty damn close to BalSac's and Flattus' 
work.

L8r
Bryan Hoopmann the Gwarior
Gwarior@hotmail.com    

Added On December 4th, 2013

SHARE

Comments

blog comments powered by Disqus

VERSIONS

ADVERTISEMENT