Hard-ons Tabs

Excuses

1 versions

TAB

            Artist - Hard-Ons
Song - Excuses

tabbed by shanE
email - random.hero___@hotmail.com

Excuses


Riff.
|------------------------------------------------|
|------------------------------------------------|
|------------------------7--5--------------------|
|-----7--5-----------0--------7-7--5-------------|
|--0-------7--7--5-------------------------------|
|------------------------------------------------|


|-------------|
|-------------|
|-----7/------|
|--2--7/---7--|
|--2--5/---7--|
|--0-------5--|

|----------------|
|----------------|
|-----7-----9----|
|--7--7--9--9----|
|--7--5--9--7----|
|--5-----7-------|    

Added On December 16th, 2013

SHARE

Comments

blog comments powered by Disqus

ADVERTISEMENT