Hate Eternal Tabs

Rebirth

1 versions

TAB

            band;hate eternal
album;pheonix amongst the ashes
song;rebirth
tuning from low to high c#,f#,b,e,g#,c#
tabber;ben chaffins
this whole album is fucking flawless it has an element of previous records
and they kick ass man the best for sure
putting in standard so its easier to read

e----------------------------------------------------------------|
b----------------------------------------------------------------|
g---------------------6-------------------6---5------------------|
d----6-5-------6-5----5-----------6-5-----5---4------------6-5---|
a-2--5-4----2--5-4-------------2--5-4-------------------2--5-4---|
e-0--4-3----0--4-3--0----0-0-0-0--4-3---0---0---0-0-0-0-0--4-3---|
                    .    . . .          .   .   . . . .
e---------------------------------------------------------------------------|
b---------------------------------------------------------------------------|
g-----------6---5-----------------------------------------------------------|
d----6-5----5---4----6-5------------------------------6-5---------------6-5-|
a-2--5-4----------2--5-4---------------------------2--5-4------------2--5-4-|
e-0--4-3--0---0---0--4-3--0-8888999999888888555555-0--4-3--0-0-0-0-0-0--4-3-|
          .   .           .                                . . . . .
e-------------------------------------------------------------------------|
b-------------------------------------------------------------------------|
g---6--------------------6---5--------------------------------------7---6-|
d---5-------------6-5----5---4---------------6-5-------------6-5----6---5-|
a--------------2--5-4---------------------2--5-4----------2--5-4----------|
e-0---0--0-0-0-0--4-3--0---0---0--0-0-0-0-0--4-3--0-0-0-0-0--4-3--0---0---|
  .   .  . . .         .   .   .  . . . .         . . . .         .   .
e----------------------------------------------------------------------------|
b----------------------------------------------------------------------------|
g----------------------------------------------------------------------------|
d----6-5------------------------------6-5--------------6-5----7----------6-5-|
a-2--5-4---------------------------2--5-4-----------2--5-4----6-------2--5-4-|
e-0--4-3--0-8888999999888888555555-0--4-3--0-0000-0-0--4-3--0---0-0-0-0--4-3-|
          .                                . .... .         .   . . .

e---------------------------------------------------------------------------|
b---------------------------------------------------------------------------|
g--------------6---5--------------------------------------6-----------------|
d--------------5---4----------6-5------------------6-5----5----------6-5----|
a--------------------------2--5-4---------------2--5-4------------2--5-4----|
e-0-0000-0-0-0---0---0-0-0-0--4-3--0-0000-0-0-0-0--4-3--0---0-0-0-0--4-3--0-|
  . .... . . .   .   . . .         . .... . . .         .   . . .         .

e--------------------------------------------------------|
b--------------------------------------------------------|
g--------------------------------------------------------|
d--------------------------------------------------------|
a------------------------------------------------------2-| end of song
e-0000888888999999888888555555777777888888777777444444-0-|
                                                       .    

Added On December 16th, 2013

SHARE

Comments

blog comments powered by Disqus

ADVERTISEMENT