Heaven And Hell Tabs

Bible Black

1 versions

TAB

            so hi there, hope you enjoy the song, it's the first song i tab, so rate and coment, thank's.

comenten y califiquen, es mi primera tab, asi q espero q les guste.

Half step down.

Intro, First Riff.

------------------------------------------------------------------------|
-----------------------------------------------------------0------------|
-------------------------2---------------------------------0------------|
-----2---1-----------2-5---4-0-4-----5-------5---------2-5-2------------| x4
---2---2---2-------2---------------5---5---5---------2-----2------------|
-0-----------3-2-0---------------3-------2-----2h3-0-------0------------|
               ~

Fill at the second time you play intro.
                                                           ~~~
-8b(9)--r(8)---9-----------------------------------12-10----12---|
-----------------7-9---8-7-------------------------------12------|
---------------------------7--------9----------------------------|
--------------------------------9--------------------------------|
-----------------------------------------------------------------|
-----------------------------------------------------------------|


other acustic part.
--------------------------------0-----------------------------------0----|
------------------------------0---0-------------------------------0---0--|
----------------------------0-----------------------------------0--------|
----------5---------7-------------------------5---------7----------------|
--------5---5/7---7---7---------------------5---5/7---7---7--------------|
--0-2-3---------5-------0-0-----------0-2-3---------5-------0-0----------|


electric part, at the same time that the acuctic one up there.
------17b(19)--17b19r17-15-17b19r17----------17b(19)--17b19r17-15-17b19r17-15-17/24----|
------------------------------------17-------------------------------------------------|
---------------------------------------------------------------------------------------|
---------------------------------------------------------------------------------------|
---------------------------------------------------------------------------------------|
---------------------------------------------------------------------------------------|

second riff, after a bass scale.

-----0---------0------0----------------0---------0-----0-----------|
-------0-6-0-3----------0-6-0-3----------0-6-0-3---------0-3-------|
---4----------------4----------------4---------------4-------------|
-2----------------2----------------2---------------2---------------| x2
-------------------------------------------------------------------|
-------------------------------------------------------------------|


rithm with drums.

-----------------------------------------------|
-----------------------------------------------|
-----------------------------------------------|
---9--9--9--9--9--9--9--9----------------------|
---7--7--7--7--7--7--7--7----7----7------------|
---0--0--0--0--0--0--0--0------8----7---6------|


bridge, with overdrive

--------------------------------------------------|
--------------------------------------------------|
--------------------------------------------------|
--------7/8/7----7/8----------7/8/7----5----------|x 2
--7-----5/6/5----5/6----7-----5/6/5----3--5-------|
--5---------------------5-----------------3-------|

Verse
"whats this world i see, ..."
---------------------------------------------------------------------------------------|
---------------------------------------------------------------------------------------|
---------------------------------------------------------------------------------------|
---------------------------------------------------------5-----------------------------|
--------------------------5-6-5--------------------------3-----------------------------|
--3h5-5-5-3h5-5-5-3h5-5-5--------3h5-5-5-3h5-5-5-3h5-5-5-------3h5-5-5-3h5-5-5-3h5-5-5-|


------------------------------------------|
------------------------------------------|
------------------------------------------| repeate it, like i dont know
------------------------------------------| how many times.
-5-6-5-------------------------3-5-3------|
-------3h5-5-5-3h5-5-5-3h5-5-5------------|

and...
"let me go, iv seen religion..."
---------------------------------------------|
---------------------------------------------|
--7---x-7-------7---x-7---7/--5--------------|
--7---x-7-------7---x-7---7/--5--------------|
--5---x-5-------5---x-5---5/--3--------------|
---------------------------------------------|

then repeat verse and, i coudn`t catch the solo, so, luckly, maybe ill post the solo in 
few days, good luck and keep play'n.    

Added On December 16th, 2013

SHARE

Comments

blog comments powered by Disqus

ADVERTISEMENT