Heaven Shall Burn Tabs

Equinox

1 versions

TAB

            -------------------------------------------------------------------------------
			     Equinox - Heaven Shall Burn
-------------------------------------------------------------------------------
Tuning: EADGBe

e|-------------------------------------------------------------------------|
B|------------------------------------8--------8---------------------------|
G|-5-7-8-0-7-8-10-8-7-3-7-8-10-8-7-5----8-7-5----10-8-7-5-0-----0-3-7-5----|
D|----------------------------------------------------------1-3------------|
A|-------------------------------------------------------------------------|
E|-------------------------------------------------------------------------|

e|-------------------------|
B|-8---------8-------------|
G|---10-8-5----10-8-5------|
D|-------------------------| play this the rest of the song
A|-------------------------|
E|-------------------------|    

Added On December 16th, 2013

SHARE

Comments

blog comments powered by Disqus

ADVERTISEMENT