Heideroosjes Tabs

Bereikbaar

1 versions

TAB

            Bereikbaar Tab by Heideroosjes


>= 4X aanslagen
--------------------------------------|
--------------------------------------|
--------12--10--9--7>>--9>>-----------|
--7>>>--12--10--9--7>>--9>>-----------|
--7>>>--10-- 8--7--5>>--7>>-----------|
--5>>>--------------------------------|
Help help ik wordt hartsikke gek
Ik communiceer mezelf over m'n nek

--------------------------------------|
--------------------------------------|
--------5-5--4------------------------|
--7-7---5-5--4--7-77--5-5--2-2-3-3----|
--7-7---3-3--2--7-77--5-5--2-2-3-3----|
--5-5-----------5-55--3-3--0-0-1-1----|
Je kunt me overal bellen  Bereik-Bar-Baar

--------------------------------------|
--------------------------------------|
--------------------------------------|
-2>2--2>2---2>2--2>2--5---------------|
-2>2--2>2---2>2--2>2--5---------------|
-0>0--0>0---0>0--0>0--3---------------|    

Added On December 4th, 2013

SHARE

Comments

blog comments powered by Disqus

ADVERTISEMENT