Heideroosjes Tabs

Sinema

1 versions

TAB

            Sinema Tab by Heideroosjes


Band: Heideroosjes
Album: Sinema
Song: Psychic
Transcriber: Robert Johnstone
Standard tuning

This band came to my home country South Africa and even made a song bout it, "Mamelodi 
also available on this album "Sinema" but anyway here's the tab for Psychic because I'm 
psychic not a psycho...


E--------------------------------------------------|
B--------------------------------------------------|
G--9-9-9-9-9-9-9-9-----9-9-9-9-9-9-9-9-------------|
D--9-9-9-9-9-9-9-9-----9-9-9-9-9-9-9-9-------------|
A--7-7-7-7-7-7-7-7-----7-7-7-7-7-7-7-7-------------|
E--------------------------------------------------|

E-----------------------------------------------------|
B-----------------------------------------------------|
G--7-7-7-7-7-7-7-7----7-7-7-7-7-7-7-7-s-9-9-----------|
D--7-7-7-7-7-7-7-7----7-7-7-7-7-7-7-7-s-9-9-----------|
A--5-5-5-5-5-5-5-5----5-5-5-5-5-5-5-5-s-7-7-----------|
E-----------------------------------------------------|

E--------------------------------------------------|
B--------------------------------------------------|
G--9-9-9-9-9-9-9-9-----9-9-9-9-9-9-9-9-------------|
D--9-9-9-9-9-9-9-9-----9-9-9-9-9-9-9-9-------------|
A--7-7-7-7-7-7-7-7-----7-7-7-7-7-7-7-7-------------|
E--------------------------------------------------|

E-----------------------------------------------------|
B-----------------------------------------------------|
G--7-7-7-7-7-7-7-7----7-7-7-7-7-7-7-7-s-9-9-----------|
D--7-7-7-7-7-7-7-7----7-7-7-7-7-7-7-7-s-9-9-----------|
A--5-5-5-5-5-5-5-5----5-5-5-5-5-5-5-5-s-7-7-----------|
E-----------------------------------------------------|

(Drums break in here)
E------------------------------------------------------|
B------------------------------------------------------|
G--9-9-9-9-9-9-9-9-9-9-9-9-9-9-9-9-9-9-s-7-7-7---------|
D--9-9-9-9-9-9-9-9-9-9-9-9-9-9-9-9-9-9-s-7-7-7---------|
A--7-7-7-7-7-7-7-7-7-7-7-7-7-7-7-7-7-7-s-5-5-5---------|
E------------------------------------------------------|

I know things, feel things and see things, you never speak out loud
E------------------------------------------------------|
B------------------------------------------------------|
G--9-9-9-9-9-9-9-9-9-9-9-9-9-9-9-9-9-9-s-7-7-7---------|
D--9-9-9-9-9-9-9-9-9-9-9-9-9-9-9-9-9-9-s-7-7-7---------|
A--7-7-7-7-7-7-7-7-7-7-7-7-7-7-7-7-7-7-s-5-5-5---------|
E------------------------------------------------------|


I know things, feel things and see things, you never speak out loud
E------------------------------------------------------|
B------------------------------------------------------|
G--9-9-9-9-9-9-9-9-9-9-9-9-9-9-9-9-9-9-s-7-7-7---------|
D--9-9-9-9-9-9-9-9-9-9-9-9-9-9-9-9-9-9-s-7-7-7---------|
A--7-7-7-7-7-7-7-7-7-7-7-7-7-7-7-7-7-7-s-5-5-5---------|
E------------------------------------------------------|

E------------------------------------------------------|
B------------------------------------------------------|
G--9-9-9-9-9-9-9-9-9-9-9-9-9-9-9-9-9-9-s-7-7-7---------|
D--9-9-9-9-9-9-9-9-9-9-9-9-9-9-9-9-9-9-s-7-7-7---------|
A--7-7-7-7-7-7-7-7-7-7-7-7-7-7-7-7-7-7-s-5-5-5---------|
E------------------------------------------------------|

E------------------------------------------------------|
B------------------------------------------------------|
G--9-9-9-9-9-9-9-9-9-9-9-9-9-9-9-9-9-9-s-7-7-7---------|
D--9-9-9-9-9-9-9-9-9-9-9-9-9-9-9-9-9-9-s-7-7-7---------|
A--7-7-7-7-7-7-7-7-7-7-7-7-7-7-7-7-7-7-s-5-5-5---------|
E------------------------------------------------------|

I'm just psychic not a psycho you never speak out loud
E------------------------------------------------------|
B------------------------------------------------------|
G--9-9-9-9-9-9-9-9-9-9-9-9-9-9-9-9-9-9-s-7-7-7---------|
D--9-9-9-9-9-9-9-9-9-9-9-9-9-9-9-9-9-9-s-7-7-7---------|
A--7-7-7-7-7-7-7-7-7-7-7-7-7-7-7-7-7-7-s-5-5-5---------|
E------------------------------------------------------|
     * *  *  *  *  *  * *  *  *  *  *  *  *

you never speak out loud
E------------------------------------------------------|
B------------------------------------------------------|
G--9-9-9-9-9-9-9-9-9-9-9-9-9-9-9-9-9-9-s-7-7-7---------|
D--9-9-9-9-9-9-9-9-9-9-9-9-9-9-9-9-9-9-s-7-7-7---------|
A--7-7-7-7-7-7-7-7-7-7-7-7-7-7-7-7-7-7-s-5-5-5---------|
E------------------------------------------------------|

Keys:
*-Palm muting
s-slide

That's the whole complete and accurate version of psychic
They use the same or similar drum beat in this song as well as in track 4, "the world" give it a listen    

Added On December 4th, 2013

SHARE

Comments

blog comments powered by Disqus

ADVERTISEMENT