Hesion Tabs

Txoj Hmoo

1 versions

TAB

            Hesion Txoj Hmoo (tabs)
Capo First Fret
Chords Cadd9, D, Em7, Cadd9, D, G

  Cadd9          D             Em7
--3----------3---0h2-----------3------------3--------------|
--3------3-------3-----3-------3-------0------------3------|
------0---------------------0--------0-----------0-----0---|
-----------------0-------------2---------------------------|
--3--------------------------------------------------------|
-----------------------------------------------------------|

  Cadd9          D             G
--0----------0---0h2-----------0---------------------------|
--3------3-------3-----3-------0------------3--------------|
------0---------------------0------------0---------0-------|
-----------------0-------------------0----------0-----0----|
--3--------------------------------------------------------|
-------------------------------3---------------------------|

Repeat the whole song.    

Added On December 16th, 2013

SHARE

Comments

blog comments powered by Disqus

ADVERTISEMENT