Hikaru Utada Tabs

Simple And Clean

7 versions

TAB

            Simple And Clean Tab by Hikaru Utada


e|----------------|------------------------------------------------------------------|
B|--3-1----------|---------------4-3---------6-4-3-1-1-3-4-3-----3-4-1---------------|
G|0-----3-2-3---|---------3-2-3-----3-2-3-5-5---------------0-3-------3-2------------|
D|----------------|-3-3-3-3----------------------------------------------------------|
A|----------------|------------------------------------------------------------------|
E|------------x3-|-------------------------------------------------------------------|

e|-----------------------------------------------------------------------|
B|-----------------------------------------------------------------------|
G|--2-3-3---2-3-3-5-----2-3-5-3-2^3^2^3^2^3^2-----2-3-3-5----------------|
D|3--------3----------5-3---------------------------------3-----------5--|
A|-----------------------------------------------------------------------|
E|-----------------------------------------------------------------------|

e|--------------------------------------------------------------|
B|--------------------------------------------------------------|
G|--------------------3--------------------------3--------3-----|
D|-5-4-5-4-5-4-5-7---5--4-3-4-3-4-3-4-5-7----5-3-5---5-3-5-5-3--|
A|--------------------------------------------------------------|
E|--------------------------------------------------------------|

e|----------------------------------------------------------------------|
B|----------------------------------------------------------------------|
G|-----------3-5--7-5---7------8-7----------3-----3-----7---------------|
D|-5-5-3-5-7----------5---5-4-----4-5-3-5---3-5---3-4-------------------|
A|----------------------------------------------------------------------|
E|----------------------------------------------------------------------|

e|-----------------|-----------------------------------------------------------------|
B|--3-1-----------|---------------4-3---------6-4-3-1-1-3-4-3-----3-4-1--------------|
G|0-----3-2-3----|---------3-2-3-----3-2-3-5-5---------------0-3-------3-2-----------|
D|-----------------|-3-3-3-3---------------------------------------------------------|
A|-----------------|-----------------------------------------------------------------|
E|------------x3--|------------------------------------------------------------------|

e|1--------1-1-3-1-------1---------------1-------------------------------------------|
B|-----------------4-3-4-----------4-3-4---3-1---------------------------------------|
G|--3-3--3-----------------3-3-0-3--------------3-2-3---2-3--------------------------|
D|----------------------------------------------------3-----3-1-0-1-0-1-3-3----------|
A|-----------------------------------------------------------------------------------|
E|-----------------------------------------------------------------------------------|

e|----------------------------------------------------------------------------------|
B|-----------3-1-4-3----------------------------------------------------------------|
G|-------3--------------------------------------------------------------------------|
D|-5-3-5---3------------------------------------------------------------------------|
A|----------------------------------------------------------------------------------|
E|----------------------------------------------------------------------------------|

e|-----------------|----------------------------------------------------------------|
B|--3-1-----------|---------------4-3---------6-4-3-1-1-3-4-3-----3-4-1-------------|
G|0-----3-2-3----|---------3-2-3-----3-2-3-5-5---------------0-3-------3-2----------|
D|-----------------|-3-3-3-3--------------------------------------------------------|
A|-----------------|----------------------------------------------------------------|
E|------------x3--|-----------------------------------------------------------------|    

Added On December 4th, 2013

SHARE

Comments

blog comments powered by Disqus