Hinder Tabs

Homecoming Queen

2 versions

TAB

            Homecoming Queen Tab by Hinder


----------------------------------------------------------------------------
                        Homecoming Queen-Hinder
----------------------------------------------------------------------------
Tabbed By: Charlie Wilhelm
Email: pimpin_aint_easy71@hotmail.com
Standard Tuning

This is one of my favorite songs from Hinder's CD "Extreme Behavior!" This is my first 
so enjoy! Please Rate!

Intro: 3x Slightly Palm-Muted
e---------------88--77------------------------------------------------------|
b----66--88-----------------------------------------------------------------|
g---------------------------------------------------------------------------|
d---------------------------------------------------------------------------|
a---------------------------------------------------------------------------|
e---------------------------------------------------------------------------|

Intro Cont: Not Palm-Muted
Guitar 1:
e---------------88--77-----------------88--77-------------------------------|
b---------------------------------------------------------------------------|
g----55--77-----------------55--77------------------------------------------|
d---------------------------------------------------------------------------|
a---------------------------------------------------------------------------|
e---------------------------------------------------------------------------|
Guitar 2:
e----------------------------------------------------------------------------|
b----------------------------------------------------------------------------|
g----5-----------------------------------------------------------------------|
d----5-x16-------------------------------------------------------------------|
a----3-----------------------------------------------------------------------|
e----------------------------------------------------------------------------|

Guitar 1:
e---------------88--77-----------------88--77-------------------------------|
b---------------------------------------------------------------------------|
g----55--77-----------------55--77------------------------------------------|
d---------------------------------------------------------------------------|
a---------------------------------------------------------------------------|
e---------------------------------------------------------------------------|
Guitar 2:
e---------------------------------------------------------------------------|
b---------------------------------------------------------------------------|
g---------------------------------------------------------------------------|
d----5----------------------------------------------------------------------|
a----5-x16------------------------------------------------------------------|
e----3----------------------------------------------------------------------|

Guitar 1:
e-------------------------------------------88--77-----------88--77---------|
b----------55--66--88--66--55--------6--55-----------66--55-----------------|
g--55--77----------------------77--5----------------------------------------|
d---------------------------------------------------------------------------|
a---------------------------------------------------------------------------|
e---------------------------------------------------------------------------|
Guitar 2:
e---------------------------------------------------------------------------|
b---------------------------------------------------------------------------|
g-----------------------------------5---------------------------------------|
d----3------------------------------5-x16-----------------------------------|
a----3-x16--------------------------3---------------------------------------|
e----1----------------------------------------------------------------------|

Verse: If you listen to the song you will get the strumming pattern
e---------------------------------------------------------------------------|
b---------------------------------------------------------------------------|
g----5----------------------------5-----------------------------------------|
d----5--------5---------3---------5--------5--------3-----------------------|
a----3--------5---------3---------3--------5--------3-----------------------|
e-------------3---------1------------------3--------1-----------------------|

Pre-Chorus:
e---------------------------------------------------------------------------|
b---------------------------------------------------------------------------|
g---------------------------------------------------------------------------|
d----77777777---55555555---33333333----33333333-55555555--------------------|
a----77777777---55555555---33333333----33333333-55555555--------------------|
e----55555555---33333333---11111111----11111111-33333333--------------------|
     .. ... .   .. ... .   .. ... .    ........ ........

Chorus:
e---------------------------------------------------------------------------|
b---------------------------------------------------------------------------|
g----5-----------------------------------------------5----------------------|
d----5-x16-----------5---------------3---------------5-x16------------------|
a----3---------------5-x16-----------3-x16-----------3----------------------|
e--------------------3---------------1--------------------------------------|

Repeat Intro x1

Repeat Verse x1

Repeat Chorus x2

Bridge: Listen to the song for the strumming patterns
e---------------------------------------------------------------------------|
b---------------------------------------------------------------------------|
g---------------------------------------------------------------------------|
d----3------7------5------3------5------3-----------------------------------|
a----3------7------5------3------5------3-----------------------------------|
e----1------5------3------1------3------1-----------------------------------|

Repeat Chorus x2   (2nd Time Add Intro Lead)

Reapeat Intro x1

Well you're on your own for the solo/outro but thats most of the song enjoy!
If anyone figures out the solo email me I would much appreciate it!    

Added On December 4th, 2013

SHARE

Comments

blog comments powered by Disqus

VERSIONS

ADVERTISEMENT