Hives Tabs

The Hives Are Law You Are Crime

2 versions

TAB

            The Hives Are Law You Are Crime Tab by Hives


this is a cracking song
PM= Palm Mute
it goes like this after the bass and drums
e---------------------------------------------------
b---------------------------------------------------
g--66666--6-----------------------------------------
d--66666--6--77777----------------------------------
a--44444--4--77777----------------------------------
e------------55555----------------------------------
then that palm muted bit happens
every other time it's played
e-------------------
b----4--------------
g---5--5------------
d-------------------
a-------------------
e-------------------
~~~~~~~PM~~~~~~~~~~~
this part is played by a second guitar i
think
that's the main parts folks
any comments or questions, e-mail me at owen1231@aol.com    

Added On December 4th, 2013

SHARE

Comments

blog comments powered by Disqus

VERSIONS

ADVERTISEMENT