Hole Tabs

I Think That I Would Die

2 versions

TAB

            I Think That I Would Die Tab by Hole


Band: Hole
Album: Live Through This
Song: I Think That I Would Die

-------------------------------------------------------------------------------
			     I THINK THAT I WOULD DIE - Hole
-------------------------------------------------------------------------------
Tabbed by: Katie K.
Email: punk_girl957@hotmail.com

Tuning: Normal         (This is my first tab, so be nice)

Open + Verse (s):

       A#                  B              G
e|---------------------------------------------------------------------------|
B|---------------------------------------------------------------------------|
G|---------------------------------------------------------------------------|
D|--------8-----------------9-------------5----------------------------------|
A|-----8-----8----------9------9----------5----------------------------------|
E|---6---------------7--------------------3----------------------------------|

Rose White, Rose Red part:

          D            F          D              C
e|---------------------------------------------------------------------------|
B|---------------------------------------------------------------------------|
G|--------7-----------------------7--------------5---------------------------|
D|--------7------------3----------7--------------5---------------------------|
A|--------5------------3----------5--------------3---------------------------|
E|---------------------1-----------------------------------------------------|

     That's all you need to know, so just put it all 
             together in the right places

| /  slide up
| \  slide down
| h  hammer-on
| p  pull-off
| ~  vibrato
| +  harmonic
| x  Mute note
===============================================================================    

Added On December 4th, 2013

SHARE

Comments

blog comments powered by Disqus

VERSIONS

ADVERTISEMENT