Honey Bane Tabs

Girl On The Run

1 versions

TAB

            Intro:

e|------17--------------------------------------------|
b|11-11-----------------------------------------------|
g|----------------------------------------------------|
d|----------------------------------------------------|(repeat X15)
a|----------------------------------------------------|
e|----------------------------------------------------|

e|----------------------------------------------------|
b|----------------------------------------------------|
g|----9-9-9-9----7-7~12~7-7~12~7----------------------|
d|7-7-9-9-9-9----7-7~12~7-7~12~7--9-9-9-9--10-10------|
a|7-7-7-7-7-7----5-5~10~5-5~10~5--9-9-9-9--10-10------|
e|5-5-----------------------------7-7-7-7--8--8-------|

Verses 1(repeat X4):

e|------17-------17-------17--------------------------|
b|11-11----11-11----11-11-----------------------------|
d|----------------------------9-9-9-9-10-10-----------|
a|----------------------------9-9-9-9-10-10-----------|
e|----------------------------7-7-7-7-8--8------------|

e|----------------------------------------------------|
b|----------------------------------------------------|
g|----9-9-9-9----7-7~12~7-7~12~7----------------------|
d|7-7-9-9-9-9----7-7~12~7-7~12~7--9-9-9-9--10-10------|
a|7-7-7-7-7-7----5-5~10~5-5~10~5--9-9-9-9--10-10------|
e|5-5-----------------------------7-7-7-7--8--8-------|

Verses 2:

e|----------------------------------------------------|
b|----------------------------------------------------|
g|------9-9-9-9----7-7~12~7-7~12~7--------------------|
d|7-7-7-9-9-9-9----7-7~12~7-7~12~7--9-9-9-9--10-10----|(repeatX3)
a|7-7-7-7-7-7-7----5-5~10~5-5~10~5--9-9-9-9--10-10----|
e|5-5-5----------------------------7-7-7-7--8--8------|

e|------17--------------------------------------------|(repeatX7)
b|11-11-----------------------------------------------|
g|----------------------------------------------------|
d|----------------------------------------------------|
a|----------------------------------------------------|
e|----------------------------------------------------|

End:

e|----------------------------------------------------|
b|----------------------------------------------------|
g|-----9-9-9-9----7-7~12~7-7~12~7---------------------|
d|7-7--9-9-9-9----7-7~12~7-7~12~7--9-9-9-9--10-10-----|
a|7-7--7-7-7-7----5-5~10~5-5~10~5--9-9-9-9--10-10-----|
e|5-5------------------------------7-7-7-7--8--8------|

e|----------------------------------------------------|
b|----------------------------------------------------|
g|------9-9-9-9----7-7~12~7-7~12~7--------------------|
d|7-7-7-9-9-9-9----7-7~12~7-7~12~7--9-9-9-9--10-10----|
a|7-7-7-7-7-7-7----5-5~10~5-5~10~5--9-9-9-9--10-10----|
e|5-5-5----------------------------7-7-7-7--8--8------|

Lyrics(from my ep "you can be you" by Honey bane):

Girl on the run,
She's got nowhere to go to,
She aint got no money,
She aint got any food,
She drifts about in London,
Attracted by the lights,
She knows she should be home,
But she won't give up her fight.

Girl on the run,
Attractive and so young,
Ruining herself
Coz she detests her mum,
So she keeps on ruining
In her desperate search
To find some love
She'll remenber.

Girl on the run,
Walking in the park,
Thinks she's alone in that
Mass of darkness and
All of the time
She's being followed by
Somebody strange
Wanting easy game.

Girl on the run,
Gets raped by a man,
Won't tell no one
Because she's afraid.
Then she gets pregnant
And then goes home,
Tells her mother,so,
She's back on the road.

Girl on the run,
Cut in the cold,
Te baby inside her
Is growing old,
She won't ask advice
Or seek any elp,
She's slowly killing
Not only herself.

Pains violent pains.
She falls in the road,
There's no one around,
It's late and it's cold,
She lays down and screams,
But nobody hears,
She dies, the kid dies,
Drowned in her fears.

http://www.youtube.com/watch?v=1-C8l4Mf6xQ    

Added On December 16th, 2013

SHARE

Comments

blog comments powered by Disqus

ADVERTISEMENT