Hudson Taylor Tabs

Hideaway

1 versions

TAB

            Hideaway 
Hudson Taylor


Rhythms, exact number of times to play each part and strumming patterns have
been omitted.  Just listen to the track and get a feel for it yourself.



Intro / Verse 1          (use palm muting as in the track)
e|----------------------------------------------------------|
B|----------------------------------------------------------|
G|--12---12------11----11------9---7------------------------|
D|--12---12------12----12------9---7------------------------|
A|--10---10h12---9-----9h10----7---5------------------------|
E|----------------------------------------------------------|


Pre Chorus         (let chords ring out)
e|--0---0---0---3------0---0----0----------------------------------|
B|--1---3---0---3------1---3----0----------------------------------|
G|--0---0---0---0------0---0----0----------------------------------|
D|--2---4---2---0------2---4----2----------------------------------|
A|--3---5---2---2------3---5----2----------------------------------|
E|--3---5---0---3------3---5----0----------------------------------|


Chorus          (let chords ring out)
e|---0----3-----0----3---0----0-----------------------------------|
B|---1----3-----1----3---0----1-----------------------------------|
G|---0----0-----0----0---0----0-----------------------------------|
D|---2----0-----2----0---2----2-----------------------------------|
A|---3----2-----3----2---2----3-----------------------------------|
E|---3----3-----3----3---0----3-----------------------------------|


Verse 2                        (use palm muting as in the track)
e|---3----3----3----3-------------------------------------------|
B|---3----3----3----3-------------------------------------------|
G|---0----2----0----2-------------------------------------------|
D|---0----0----2----0-------------------------------------------|
A|---2---------2------------------------------------------------|
E|---3---------0------------------------------------------------|


Bridge      (ring out chords at start and then use palm mutes like the verse)
e|----0------0------------------------------------------------|
B|----3------0------------------------------------------------|
G|----0------0------------------------------------------------|
D|----4------9------------------------------------------------|
A|----5------7------------------------------------------------|
E|----5-------------------------------------------------------|


Outro     (play broken chords)

G       Em      C       G




LYRICS



When I'm with you alone,
I keep complete control,
I wanna tell you how I feel,
But when it comes to it I don't.

All of that's about to change,
The truth is buried in my veins,
Deep down I let the feeling grow,
And now I'll spell out in bold.

No Hideaway, no Hideaway,
Just words I wanna say, words I gotta say,
I'll watch you break, I'll bring you pain,
I'll say it to your face, no hideaway.

When you're with me alone,
I wonder do you keep complete control?
Do you tell me what I wanna hear?
And keep your secrets stowed?

And all of that's about to change,
The truth is buried in my veins,
Deep down I let the feeling grow, 
And now I'll spell out in bold.

No Hideaway, no Hideaway,
Just words I wanna say, words I gotta say,
I'll watch you break, I'll bring you pain,
I'll say it to your face, no hideaway. 

Everythings about to change, change, change, 
This is what im trying to say, say, say, 
Everythings about to change, change, change, 
listen what im trying to say, say, say, 
Deep down I let the feeling grow, 
And now I'll spell out in bold.

No Hideaway, no Hideaway,
Just words I wanna say, words I gotta say,
I'll watch you break, I'll bring you pain,
I'll say it to your face, no hideaway.    

Added On December 16th, 2013

SHARE

Comments

blog comments powered by Disqus

ADVERTISEMENT