I Am X Tabs

White Suburb Impressionism

1 versions

TAB

            -------------------------------------------------------------------------------
White Suburb Impressionism - IAMX
-------------------------------------------------------------------------------
Tabbed by: The Alternative
Tuning: standard EADGBe

Intro (continues throughout song)

e|-------------------------|-------------------------------------------------|
B|-------------------------|-------------------------------------------------|
G|-------------------------|-------------------------------------------------|
D|-------------------------|-------------------------------------------------|
A|-----------------3-------|---5---3---5---7---------------------------------|
E|----5---3---5--------5---|-------------------5-----------------------------|

Chords (for both verses and chorus)
 
e|-----0----------------------------2------------------------------------------|
B|-----1----------------------------3------------------------------------------|
G|-----2----------------------------2------------------------------------------|
D|-----2----------------------------0------------------------------------------|
A|-----0----------------------------0------------------------------------------|
E|-----x----------------------------x------------------------------------------|

 x  Mute note
===============================================================================    

Added On December 16th, 2013

SHARE

Comments

blog comments powered by Disqus

ADVERTISEMENT