I Hate Sally Tabs

Mary Mary

1 versions

TAB

            ----------------------------------------------------------------------------
			     Mary! Mary! - I Hate Sally
----------------------------------------------------------------------------
Tabbed by: Musical Meds
Email:

Tuning: B/F#/B/E/G#/C# 

Riff #1 
e|-------------------------------------------------------------------------|
B|-------------------------------------------------------------------------|
G|-------------------------------------------------------------------------|
D|-6-5-4-0-----------------------------------------------------------------|
A|-6-5-4-0--5-----5-----5--------------------------------------------------|
E|-6-5-4-0----0-0---0-0---0-0----------------------------------------------|

Riff #2 
e|-------------------------------------------------------------------------|
B|-------------------------------------------------------------------------|
G|-------------------------------------------------------------------------|
D|-6-5-3---3-1-------------------------------------------------------------|
A|-6-5-3---3-1--------------------5-----5-----5----------------------------|
E|-6-5-3---3-1---/8-8-7-8-7-5-4-0---0-0---0-0---0-0------------------------|

End on this
e|-------------------------------------------------------------------------|
B|-------------------------------------------------------------------------|
G|-------------------------------------------------------------------------|
D|-6-5---------------------------------------------------------------------|
A|-6-5---------------------------------------------------------------------|
E|-6-5---------------------------------------------------------------------|



| /  slide up
| \  slide down
| h  hammer-on
| p  pull-off
| ~  vibrato
| +  harmonic
| x  Mute note
===============================================================================    

Added On December 16th, 2013

SHARE

Comments

blog comments powered by Disqus

ADVERTISEMENT