I The Mighty Tabs

Dancing On A Tightrope

1 versions

TAB

            Mostly Rhythm, please rate and enjoy.
(check tuning)

Intro:
|--13-------13-------13-------16-------------------6--|
|-----14-------14-------14-------14----14-(x2)-----7--|
|--------15-------15-------15-------15-------------8--|
|----------------------------------------------4---8--| (x2)
|----------------------------------------------4---6--|
|----------------------------------------------4------|

Verse (not positive about this but its how I play it):

|-------------------------|
|-------------------------|
|----6--------------------|
|----8---8---8---8--10----|
|--------6---9---6--8-----|
|-------------------------|

Pre-chorus:

|-------------------------|
|-------------------------|
|-------------------------|
|----------------3--------|
|-------1-4------3-(x8)---|
|---4-3-----6-4--3--------|

Chorus:
|--13-------13-------13-------16-------------------6--|
|-----14-------14-------14-------14----14-(x2)-----7--|
|--------15-------15-------15-------15-------------8--|
|----------------------------------------------4---8--| (x2)
|----------------------------------------------4---6--|
|----------------------------------------------4------|
Verse:

Quiet during 'it will all come back to you...'

then:
|-------------------------|
|-------------------------|
|----6--------------------|
|----8---8---8---8--10----|
|--------6---9---6--8-----|
|-------------------------|

Pre-chorus:
|-------------------------|
|-------------------------|
|-------------------------|
|----------------3--------|
|-------1-4------3-(x5)---|
|---4-3-----6-4--3--------|

chorus:                                                3rd 'bury yourself'
{--13-------13-------13-------16-------------------6-}------------|
{-----14-------14-------14-------14----14-(x2)-----7-}------------|
{--------15-------15-------15-------15-------------8-}------------|
{----------------------------------------------4---8-}-{x2)-4-6---|
{----------------------------------------------4---6-}------4-6---|
{----------------------------------------------4-----}------4-6---|

Breakdown:                    ()= second time around
|-----------------------|------------------------|
|-----------------------|------------------------|
|-----------------------|------------------------|
|----4-3-2-3----1-------|----4-3-2(3)(7)(13)(15)-|
|--1---------0-3-4-3-0--|--1------(3)(7)(13)(15)-|
|-----------3-----------|----------3\\7\\13\\15--|

Chorus:
Come in at 'bury yourself'
|-------6--|
|-------7--|
|-------8--|
|---4---8--|
|---4---6--|
|---4------|

|--13-------13-------13-------16-------------------6--|
|-----14-------14-------14-------14----14-(x2)-----7--|
|--------15-------15-------15-------15-------------8--|
|----------------------------------------------4---8--|
|----------------------------------------------4---6--|
|----------------------------------------------4------|

Bridge:
|---------------------------|----------------------|
|---------------------------|----------------------|
|-3--5--6--8\10-----8-----8-|-3--5--6--8\10--------|
|-3--5--6--8\10--4--8--4--8-|-3--5--6--8\10--4--6--|
|-1--3--4--6\8---4--6--4--6-|-1--3--4--6\8---4--6--|
|----------------4-----4----|----------------4--6--|
Bury yourself....
|--------------------|
|--------------------|
|--------------------|
|----4-----6---------| (x2)
|----4-----6---------|
|----4-----6---------|
End on 
()=optional
|----13---|
|----14---|
|----15---|
|---(15)--|
|---(13)--|
|---------|    

Added On December 16th, 2013

SHARE

Comments

blog comments powered by Disqus

ADVERTISEMENT