Idlewild Tabs

Bronze Medal

2 versions

TAB

            Bronze Medal Tab by Idlewild


The Bronze Medal - Idlewild
Tabbed by Greg Harrison


 B                   D                         A                  G
e-------------------------------------------------------------------------------|
b-------------------------------------------------------------------------------|
g-------------------------------------------------------------------------------|
d-----0-----0-------------0-------0----------------0-----0------------0---0-----|
a---9-----9-----9------12------12-----12---------7-----7-----7------5----5----5-|
e-7-----7-----7-----10------10------10---------5-----5-----5------3----3----3---|

REPEAT THAT RIFF FOR THE INTRO AND THE VERSES.

when roddy sings "nothing but your eyes looking down on the third place"
play this.......

   D        B       A       G
e--------------------------------------|
b--------------------------------------|
g--------------------------------------|
d--12-------9-------7-------5----------|
a--12--X8---9--X8---7--X8---5--X8------|
e--10-------7-------5-------3----------|

Repeat this until he sings "it felt warm inside....."
there should be another bit,but i just play the above riff until he sings that
it sounds ok 2 me.

thats about it. itsa a really simple song to play.and if your trying to do something different
then you can speed it up and play it really fast,or play the same speed but with loads of
distortion.both ways sound really cool

any comments to greg_7485@hotmail.com    

Added On December 4th, 2013

SHARE

Comments

blog comments powered by Disqus

VERSIONS

ADVERTISEMENT