INXS Tabs

Please You Got That

1 versions

TAB

            -------------------------------------------------------------------------------
	             Please (you got that...) - INXS
-------------------------------------------------------------------------------
Tabbed by: Marcos
Email:     mfng@ig.com.br

Tuning: Standard

From "Full moon, dirty hearts" record.

Who plays each guitar is purely my best guess...

Main riff (Tim's):
|---------------|
|---------------|
|------------2--|
|--2-3-4--------|
|---------2-----|
|---------------|
(play throughout verse)

(In the middle of the verse the piano kicks in on B)

Chorus:

Guitar 1 (Tim):
|-----------------------------------------------------------|
|-----------------------------------------------------------|
|--4-444-2-4-----4-444-2-4---------4-444-2-4-----4-444-2-4--|
|--4-444-2-4-----4-444-2-4---------4-444-2-4-----4-444-2-4--|
|--2-222-0-2-----2-222-0-2---------2-222-0-2-----2-222-0-2--|
|-----------------------------------------------------------|

Guitar 2 (Kirk):
|-----------------------------------------------------------|
|------------/10~~---------------------------/12~~----------|
|-----------------------------------------------------------|
|-----------------------------------------------------------|
|-----------------------------------------------------------|
|-----------------------------------------------------------|


Fill in 2nd verse (Kirk):
|----------|
|--12--10--|
|----------|
|----------|
|----------|
|----------|

Bridge:
|---------------------------------------|
|---------------------------------------|
|---------------------------------------|
|--2-222-222----------2-222-222---------|
|--2-222-222--5-4-2---2-222-222---------|
|--0-000-000----------0-000-000--3-2-0--|

Very end:
|---------|
|---------|
|--4-3-2--|
|---------|
|--2-1-0--|
|---------|

| /  slide up
| \  slide down
| h  hammer-on
| p  pull-off
| ~  vibrato
| +  harmonic
| x  Mute note
===============================================================================    

Added On December 16th, 2013

SHARE

Comments

blog comments powered by Disqus

ADVERTISEMENT