Iration Tabs

Summer Nights

1 versions

TAB

            Summer Nights – Iration (Fresh Grounds- EP)
            ---------------------------------------
Tabbed by: JahBruddah
Email:

Tuning: Standard

e|-----------------------------------------------------|
B|--10-10----------------------------------------------|
G|--------9-9-9-7-7-7-6-6------------------------------| (x2) Intro riff
D|-------------------------7-9-11-(X3)-----------------|
A|-----------------------------------------------------|
E|-----------------------------------------------------|

e|--5-5---2-2---2-2---7-7----------------------------------|
B|--5-5---2-2---3-3---9-9----------------------------------|
G|--6-6---2-2---4-4---9-9----------------------------------| Verse/ Chorus
D|--7-7---4-4---4-4---9-9----------------------------------|
A|--7-7---4-4---2-2---7-7----------------------------------|
E|--5-5---2-2---x-x---x-x----------------------------------|

Intro (x2)


e|-2-------7-------------------------------------------|
B|-3-------9-------------------------------------------|
G|-4-(X4)--9-(x4)--------------------------------------| Bridge
D|-4-------9-------------------------------------------|
A|-2-------7-------------------------------------------|
E|-x-------x-------------------------------------------|

There Ya GOOOO!!!    

Added On December 16th, 2013

SHARE

Comments

blog comments powered by Disqus

ADVERTISEMENT