Jamestown Story Tabs

In Loving Memory

3 versions

TAB

            In Loving Memory Tab by Jamestown Story


in loving memory-  and then i turned seven
-------------------------------------------------------------------------------
Tabbed by:wasted youth
Email:call-it-karma@hotmail.com

Tuning:EADFGe
intro:
e|---------------------------------------------------------------------------|
B|---------------------------------------------------------------------------|
G|-----------------13--11--10--8---------------------------------------------|x 2
D|-------------11------------------------------------------------------------|
A|-1---3--4------------------------------------------------------------------|
E|---------------------------------------------------------------------------|
guitar 1
e|--4------------4------------6-----------------2-------------------------------|
B|--4------------4------------6-----------------2-------------------------------|
G|--6------------6------------6-----------------2-------------------------------|
D|--6------------x------------8-----------------4-------------------------------|
A|--4------------6------------8-----------------4-------------------------------|
E|--4------------4------------6-----------------2-------------------------------|
guitar 2
e|-------------------------------------------------------------------------------|
B|-------------------------------------------------------------------------------|
G|--5/6--6--6-6-6/8--8--10--8--6-------------------------------------------------|
D|-------------------------------------------------------------------------------|
A|-------------------------------------------------------------------------------|
E|-------------------------------------------------------------------------------|
bridge:guitar 1
e|--4------------4------------6-----------------2-------------------------------|
B|--4------------4------------6-----------------2-------------------------------|
G|--6------------6------------6-----------------2-------------------------------|
D|--6------------x------------8-----------------4-------------------------------|
A|--4------------6------------8-----------------4-------------------------------|
E|--4------------4------------6-----------------2-------------------------------|
guitar 2
e|---------------------------------------------------------------------------|
B|---------------------------------------------------------------------------|
G|---10--10--10--10--11--11--11--11--10--10--10--10---8----8----8----8-------|
D|-----11--11--11--11--11--11--11--11--11--11--11--11----11---11---11--11----|
A|---------------------------------------------------------------------------|
E|---------------------------------------------------------------------------|
play about times i mite be wrong mabey 6 but idk listin and see


close it all up with the intro and ur set u can figure it out ok? lata thx rank the best
lata
| /  slide up
| \  slide down
| h  hammer-on
| p  pull-off
| ~  vibrato
| +  harmonic
| x  Mute note
===============================================================================    

Added On December 4th, 2013

SHARE

Comments

blog comments powered by Disqus

VERSIONS

ADVERTISEMENT