Joan Jett Tabs

Fetish

1 versions

TAB

            So... I figured this out by ear and watching Joan and
the Blackhearts perform it live, so take it for what it's worth :)
Listen to song for timing

INTRO, VERSES
e----------------------------------------|guitar 1
b----------------------------------------|
g----------------------------------------|
d----------------------------------------|
a-------------0h2-2-2-2------------------|
E--0h2-2-2-2-----------------------------|
                                         |
                                         |
e----------------------------------------|guitar 2(Joan)
b----------------------------------------|
g--------------------4-4-4-4-------------|
d----4-4-4-4-------0-4-4-4-4-------------|
a--0-4-4-4-4-------0h2-2-2-2-------------|
E--0h2-2-2-2-----------------------------|


CHORUS                "You    Fet-ish."
                         are my                      (repeat this measure)
e-----------------|--------------------||----------------------------||
b-----------------|----------------2---||o--------------------------o||
g-6-6-6-6-6-6-6-6-|-6---4-4-4---6--2---||----------------------------||
d-6-6-6-6-6-6-6-6-|-6---4-4-4---6--2---||----------------------------||
a-4-4-4-4-4-4-4-4-|-4---2-2-2---4--0---||o--------------0h2-2-2-2---o||
E-----------------|--------------------||---0h2-2-2-2----------------||
                                       |                             | 
                                       |                             |  
e-----------------|--------------------||----------------------------||
b-----------------|---------------2----||o--------------------------o||
g-6-6-6-6-6-6-6-6-|-6---4-4-4--6--2----||-----------------4-4-4-4----||
d-6-6-6-6-6-6-6-6-|-6---4-4-4--6--2----||-----4-4-4-4---0-4-4-4-4----||
a-4-4-4-4-4-4-4-4-|-4---2-2-2--4--0----||o--0-4-4-4-4---0h2-2-2-2---o||
E-----------------|--------------------||---0h2-2-2-2----------------||

VERSE
CHORUS

GUITAR SOLO (guitar 1, untabbed)
while guitar 2 plays this TWICE:                        *REST* during last 
                                                          measure on repeat
e-----------------|-----------------|------------------|------------------|
b-----------------|-----------------|------------------|------------------|
g-----------------|-----------------|------------4-4-4-|------------4-4-4-|
d-7-7-7-7-7-7-7-7-|-6-6-6-6-2-2-2-2-|---4-4-4--0-4-4-4-|---4-4-4--0-4-4-4-|
a-7-7-7-7-7-7-7-7-|-6-6-6-6-2-2-2-2-|-0-4-4-4--0h2-2-2-|-0-4-4-4--0h2-2-2-|
E-5-5-5-5-5-5-5-5-|-4-4-4-4-0-0-0-0-|-0h2-2-2----------|-0h2-2-2----------|

VERSE
CHORUS x3

CHORUS VARIATION                                    (repeat this measure)
e-----------------|--------------------||-----------------------------|
b-----------------|----------------2---||-o-------------------------o-|
g-6-6-6-6-6-6-6-6-|-6---4-4-4---6--2---||-----------------------------|
d-6-6-6-6-6-6-6-6-|-6---4-4-4---6--2---||-----------------------------|
a-4-4-4-4-4-4-4-4-|-4---2-2-2---4--0---||-o-------------------------o-|
E-----------------|--------------------||----0h2-2-2-2----0h2-2-2-2---|

BRIDGE: Vocals begin on repeat. 
  ("I order you, you, you/You better m-m-mine...")
e-------------------------|--------------------------|
b-------------------------|--------------------------|
g-------------------------|--------------------------| play these measures
d-------------------------|--------------------------|   five times
a-------------------------|--------------------------|
E--0h2-2-2-2----0h2-2-2-2-|--0h2-2-2-2----0h2-2-2-2--|

BREAKDOWN                 
e-----------------------|----------------------------|
b-----------------------|----------------------------|
g-----------------------|----------------------------| play these measures
d-----------------------|----------------------------|    three times
a-------------0---------|--------------0-------------|
E--0h2-2-2-2----2-2-2---|--0h2-2-2-2-----2-2-2-------|
                                                     |
                                                     |
e-----------------------|----------------------------|
b-----------------------|----------------------------|
g-----------------------|----------------------------|
d----4-4-4-----4-4-4----|----4-4-4-----4-4-4---------|
a--0-4-4-4---0-4-4-4----|--0-4-4-4---0-4-4-4---------|
E--0h2-2-2---0h2-2-2----|--0h2-2-2---0h2-2-2---------|

END
e-----------------------|----------------------------|
b-----------------------|----------------------------|
g-----------------------|----------------------------| 
d-----------------------|----------------------------|  
a-------------0---------|----------------------------|
E--0h2-2-2-2----2-2-2---|----------------------------|
                                                     |
                                                     |
e-----------------------|----------------------------|
b-----------------------|--------2-------------------|
g-----------------------|-----4--2-------------------|
d----4-4-4-----4-4-4----|--2--4--2---4.--------------|
a--0-4-4-4---0-4-4-4----|--2--2--0---4.--------------|Let last chord ring.
E--0h2-2-2---0h2-2-2----|--0---------2.--------------|

And there you have it. May not be exactly correct, but it
sounds fine with the CD to me. Enjoy!    

Added On December 16th, 2013

SHARE

Comments

blog comments powered by Disqus

ADVERTISEMENT