John Frusciante Tabs

A Loop

3 versions

TAB

            A Loop Tab by John Frusciante


e|------------------------|
b|------------------------|
g|------4-4--4-4--4-4-----|
d|---2-2---2----2----2----|
a|------------------------|
e|------------------------|


-------------------------------------------------------------------------------------------|
-------------------------------------------------------------------------------------------|
-------4---4------2---2--------------------------------------------------------------------|
---2-2---2----0-0---0--------5--5-------4---4----------------------------------------------|
-------------------------3-3---3----2-2---2---------7---7-------5----5------3---3---2------|
------------------------------------------------5-5---5-----3-3---3-----1-1---1-----0------|


I can't wait for life part is

f-g-am-am
f-g-am-e    

Added On December 5th, 2013

SHARE

Comments

blog comments powered by Disqus

VERSIONS

ADVERTISEMENT