John Frusciante Tabs

Leap Your Bar

2 versions

TAB

            Leap Your Bar Tab by John Frusciante


-------------------------------------------------------------------------------
			     LEAP YOUR BAR - John Frusciante
-------------------------------------------------------------------------------
Tabbed by: Strat_Monkey (Frank Podmore)
Email: justcallmethelurvemonkey@yahoo.co.uk

Tuning: E Standard (low to high) EADGBe (piano/vocals arr. for guitar)
There are some harmonies in the song, unfortunately I'm too lazy to say where. Sorry. 
chords might be a little off. Or even a lot off.

Verse:
    F#5    A5   B5   F5     A5  B5
e|----------------------------------|
B|----------------------------------|
G|---------11-9-6-----------11-9-9--|
D|----7-11-------------7-11---------|
A|--9----------------9--------------|
E|----------------------------------|x2

Interlude:
    F#5      A5 B5
e|-----------14-12-12--|
B|-----10-14-----------|
G|--11-----------------|
D|---------------------|
A|---------------------|
E|---------------------|x2

Bridge:
N.C.
e|--------------------------------------------------------------|
B|--------------------------------------------------------------|
G|--9-11-9-11-9--11-9-------------9-11-9-11-9--11-9-------------|
D|--------------------12-11-9-12--------------------12-11-9-12--|
A|--------------------------------------------------------------|
E|--------------------------------------------------------------|
    F#m   E        D
e|--------------------|
B|--------------------|
G|--6-6-6-4--4-4-4-2--|
D|--7-7-7-6--6-6-6-4--|
A|--9-9-9-7--7-7-7-5--|
E|--------------------|

(Repeat Interlude)

That's the whole song, just play it three times over. Voila!
===============================================================================    

Added On December 5th, 2013

SHARE

Comments

blog comments powered by Disqus

VERSIONS

ADVERTISEMENT