John Frusciante Tabs

Representing

1 versions

TAB

            e-22222222------7777-|
B-33333333-7777-8888-|
G-44444444-7777-9999-|
D-44444444-7777-9999-|
A-22222222-5555-7777-|
E--------------------|x2

e-55555555-7777-9-9-9-9--|
B-77777777-8888-10101010-|
G-66666666-7777-9-9-9-9--|
D-44444444-5555-7-7-7-7--|
A------------------------|
E------------------------|

e-22222222-0000------|
B-33333333-0000-2222-|
G-44444444-0000-2222-|
D-44444444-2222-2222-|
A-22222222-2222-0000-|
E----------0000------|x2

e-22222222------7777-|
B-33333333-7777-8888-|
G-44444444-7777-9999-|
D-44444444-7777-9999-|
A-22222222-5555-7777-|
E--------------------|x2

e-55555555-7777-9-9-9-9--|
B-77777777-8888-10101010-|
G-66666666-7777-9-9-9-9--|
D-44444444-5555-7-7-7-7--|
A------------------------|
E------------------------|

e-22222222-0000------|
B-33333333-0000-2222-|
G-44444444-0000-2222-|
D-44444444-2222-2222-|
A-22222222-2222-0000-|
E----------0000------|x2

e-------------------2-2--------2-2--------|
B-33333333-22222222-3-3-7-33-7-3-3-7-33-7-|
G-44444444-33333333-4-4-7-44-7-4-4-7-44-7-|
D-55555555-44444444-4-4-7-55-7-4-4-7-55-7-|
A-55555555-44444444-2-2-5-55-5-2-2-5-55-5-|
E-33333333-22222222-------33---------33---|

e-------------------2-2--------2-2--------|
B-33333333-22222222-3-3-7-33-7-3-3-7-33-7-|
G-44444444-33333333-4-4-7-44-7-4-4-7-44-7-|
D-55555555-44444444-4-4-7-55-7-4-4-7-55-7-|
A-55555555-44444444-2-2-5-55-5-2-2-5-55-5-|
E-33333333-22222222-------33---------33---|

e-22222222------7777-|
B-33333333-7777-8888-|
G-44444444-7777-9999-|
D-44444444-7777-9999-|
A-22222222-5555-7777-|
E--------------------|x2

e-55555555-7777-9-9-9-9--|
B-77777777-8888-10101010-|
G-66666666-7777-9-9-9-9--|
D-44444444-5555-7-7-7-7--|
A------------------------|
E------------------------|

e-22222222-0000------|
B-33333333-0000-2222-|
G-44444444-0000-2222-|
D-44444444-2222-2222-|
A-22222222-2222-0000-|
E----------0000------|x2

e-22222222------7777-|
B-33333333-7777-8888-|
G-44444444-7777-9999-|
D-44444444-7777-9999-|
A-22222222-5555-7777-|
E--------------------|x2

e-55555555-7777-9-9-9-9--|
B-77777777-8888-10101010-|
G-66666666-7777-9-9-9-9--|
D-44444444-5555-7-7-7-7--|
A------------------------|
E------------------------|

e-22222222-0000------|
B-33333333-0000-2222-|
G-44444444-0000-2222-|
D-44444444-2222-2222-|
A-22222222-2222-0000-|
E----------0000------|x2

e-------------------2-2--------2-2--------|
B-33333333-22222222-3-3-7-33-7-3-3-7-33-7-|
G-44444444-33333333-4-4-7-44-7-4-4-7-44-7-|
D-55555555-44444444-4-4-7-55-7-4-4-7-55-7-|
A-55555555-44444444-2-2-5-55-5-2-2-5-55-5-|
E-33333333-22222222-------33---------33---|

e-------------------2-2--------2-2--------|
B-33333333-22222222-3-3-7-33-7-3-3-7-33-7-|
G-44444444-33333333-4-4-7-44-7-4-4-7-44-7-|
D-55555555-44444444-4-4-7-55-7-4-4-7-55-7-|
A-55555555-44444444-2-2-5-55-5-2-2-5-55-5-|
E-33333333-22222222-------33---------33---|

e-----|
B-3~--|
G-4~--|
D-5~--|
A-5~--|
E-3~--|    

Added On December 16th, 2013

SHARE

Comments

blog comments powered by Disqus

ADVERTISEMENT