John Frusciante Tabs

Time Tonight

1 versions

TAB

            Song: Time Tonight by John Frusciante
Album: Curtains
Tuning: Standard


Chords Used:

E   (0 2 2 1 0 0) or (x 7 9 9 9 7)
B   (x 2 4 4 4 2)
D#m (x 6 8 8 7 6)
C#  (x 4 6 6 6 4)
G#m (4 6 6 4 4 4)
F#  (2 4 4 3 2 2)

Fill 1:
|-----------------|
|-7-5-------------|
|-----4---9-8-----|
|-------4-----9---|
|---------------9-|
|-0-------7-------|

Fill 2:

|-----------------|
|-----------------|
|-------1-4-3-----|
|-----2-------4---|
|---2-----2-----4-|
|-0---------------|
Vers 1:

     G#m
G#m
e |-x-|---|---|---|---|
B |-x-|---|---|---|---|
G |-x-|---|---|---|---|
D |---|---|-x-|---|---|
A |---|---|-x-|---|---|
E |-x-|---|---|---|---|
For changing lines B
B
e |---|-x-|---|---|---|
B |---|---|---|-x-|---|
G |---|---|---|-x-|---|
D |---|---|---|-x-|---|
A |---|-x-|---|---|---|
E |---|-x-|---|---|---|
F#
F#
e |---|-x-|---|---|---|
B |---|-x-|---|---|---|
G |---|---|-x-|---|---|
D |---|---|---|-x-|---|
A |---|---|---|-x-|---|
E |---|-x-|---|---|---|
G#m
G#m
e |-x-|---|---|---|---|
B |-x-|---|---|---|---|
G |-x-|---|---|---|---|
D |---|---|-x-|---|---|
A |---|---|-x-|---|---|
E |-x-|---|---|---|---|
Fill 1 I've got no time tonight G#m
G#m
e |-x-|---|---|---|---|
B |-x-|---|---|---|---|
G |-x-|---|---|---|---|
D |---|---|-x-|---|---|
A |---|---|-x-|---|---|
E |-x-|---|---|---|---|
B
B
e |---|-x-|---|---|---|
B |---|---|---|-x-|---|
G |---|---|---|-x-|---|
D |---|---|---|-x-|---|
A |---|-x-|---|---|---|
E |---|-x-|---|---|---|
F#
F#
e |---|-x-|---|---|---|
B |---|-x-|---|---|---|
G |---|---|-x-|---|---|
D |---|---|---|-x-|---|
A |---|---|---|-x-|---|
E |---|-x-|---|---|---|
G#m
G#m
e |-x-|---|---|---|---|
B |-x-|---|---|---|---|
G |-x-|---|---|---|---|
D |---|---|-x-|---|---|
A |---|---|-x-|---|---|
E |-x-|---|---|---|---|
Fill 2 In these times the wind surpasses the tide D#m
D#m
e |---|-x-|---|---|---|
B |---|---|---|-x-|---|
G |---|---|-x-|---|---|
D |---|---|---|-x-|---|
A |---|---|---|---|---|
E |---|---|---|---|---|
G#m
G#m
e |-x-|---|---|---|---|
B |-x-|---|---|---|---|
G |-x-|---|---|---|---|
D |---|---|-x-|---|---|
A |---|---|-x-|---|---|
E |-x-|---|---|---|---|
B
B
e |---|-x-|---|---|---|
B |---|---|---|-x-|---|
G |---|---|---|-x-|---|
D |---|---|---|-x-|---|
A |---|-x-|---|---|---|
E |---|-x-|---|---|---|
D#m
D#m
e |---|-x-|---|---|---|
B |---|---|---|-x-|---|
G |---|---|-x-|---|---|
D |---|---|---|-x-|---|
A |---|---|---|---|---|
E |---|---|---|---|---|
when the wake ups hard to find G#m
G#m
e |-x-|---|---|---|---|
B |-x-|---|---|---|---|
G |-x-|---|---|---|---|
D |---|---|-x-|---|---|
A |---|---|-x-|---|---|
E |-x-|---|---|---|---|
B
B
e |---|-x-|---|---|---|
B |---|---|---|-x-|---|
G |---|---|---|-x-|---|
D |---|---|---|-x-|---|
A |---|-x-|---|---|---|
E |---|-x-|---|---|---|
G#m
G#m
e |-x-|---|---|---|---|
B |-x-|---|---|---|---|
G |-x-|---|---|---|---|
D |---|---|-x-|---|---|
A |---|---|-x-|---|---|
E |-x-|---|---|---|---|
F#
F#
e |---|-x-|---|---|---|
B |---|-x-|---|---|---|
G |---|---|-x-|---|---|
D |---|---|---|-x-|---|
A |---|---|---|-x-|---|
E |---|-x-|---|---|---|
E
E
e |---|---|---|---|---|
B |---|---|---|---|---|
G |-x-|---|---|---|---|
D |---|-x-|---|---|---|
A |---|-x-|---|---|---|
E |---|---|---|---|---|
dreams make up for your life Vers 2: G#m
G#m
e |-x-|---|---|---|---|
B |-x-|---|---|---|---|
G |-x-|---|---|---|---|
D |---|---|-x-|---|---|
A |---|---|-x-|---|---|
E |-x-|---|---|---|---|
B
B
e |---|-x-|---|---|---|
B |---|---|---|-x-|---|
G |---|---|---|-x-|---|
D |---|---|---|-x-|---|
A |---|-x-|---|---|---|
E |---|-x-|---|---|---|
F#
F#
e |---|-x-|---|---|---|
B |---|-x-|---|---|---|
G |---|---|-x-|---|---|
D |---|---|---|-x-|---|
A |---|---|---|-x-|---|
E |---|-x-|---|---|---|
G#m
G#m
e |-x-|---|---|---|---|
B |-x-|---|---|---|---|
G |-x-|---|---|---|---|
D |---|---|-x-|---|---|
A |---|---|-x-|---|---|
E |-x-|---|---|---|---|
Fill 1 This crazy shine it never lets you die G#m
G#m
e |-x-|---|---|---|---|
B |-x-|---|---|---|---|
G |-x-|---|---|---|---|
D |---|---|-x-|---|---|
A |---|---|-x-|---|---|
E |-x-|---|---|---|---|
Going up B
B
e |---|-x-|---|---|---|
B |---|---|---|-x-|---|
G |---|---|---|-x-|---|
D |---|---|---|-x-|---|
A |---|-x-|---|---|---|
E |---|-x-|---|---|---|
F#
F#
e |---|-x-|---|---|---|
B |---|-x-|---|---|---|
G |---|---|-x-|---|---|
D |---|---|---|-x-|---|
A |---|---|---|-x-|---|
E |---|-x-|---|---|---|
G#m
G#m
e |-x-|---|---|---|---|
B |-x-|---|---|---|---|
G |-x-|---|---|---|---|
D |---|---|-x-|---|---|
A |---|---|-x-|---|---|
E |-x-|---|---|---|---|
Fill 2 We become what we want D#m
D#m
e |---|-x-|---|---|---|
B |---|---|---|-x-|---|
G |---|---|-x-|---|---|
D |---|---|---|-x-|---|
A |---|---|---|---|---|
E |---|---|---|---|---|
G#m
G#m
e |-x-|---|---|---|---|
B |-x-|---|---|---|---|
G |-x-|---|---|---|---|
D |---|---|-x-|---|---|
A |---|---|-x-|---|---|
E |-x-|---|---|---|---|
B
B
e |---|-x-|---|---|---|
B |---|---|---|-x-|---|
G |---|---|---|-x-|---|
D |---|---|---|-x-|---|
A |---|-x-|---|---|---|
E |---|-x-|---|---|---|
D#m
D#m
e |---|-x-|---|---|---|
B |---|---|---|-x-|---|
G |---|---|-x-|---|---|
D |---|---|---|-x-|---|
A |---|---|---|---|---|
E |---|---|---|---|---|
Again the moon rises up too high G#m
G#m
e |-x-|---|---|---|---|
B |-x-|---|---|---|---|
G |-x-|---|---|---|---|
D |---|---|-x-|---|---|
A |---|---|-x-|---|---|
E |-x-|---|---|---|---|
B
B
e |---|-x-|---|---|---|
B |---|---|---|-x-|---|
G |---|---|---|-x-|---|
D |---|---|---|-x-|---|
A |---|-x-|---|---|---|
E |---|-x-|---|---|---|
G#m
G#m
e |-x-|---|---|---|---|
B |-x-|---|---|---|---|
G |-x-|---|---|---|---|
D |---|---|-x-|---|---|
A |---|---|-x-|---|---|
E |-x-|---|---|---|---|
F#
F#
e |---|-x-|---|---|---|
B |---|-x-|---|---|---|
G |---|---|-x-|---|---|
D |---|---|---|-x-|---|
A |---|---|---|-x-|---|
E |---|-x-|---|---|---|
E
E
e |---|---|---|---|---|
B |---|---|---|---|---|
G |-x-|---|---|---|---|
D |---|-x-|---|---|---|
A |---|-x-|---|---|---|
E |---|---|---|---|---|
And we don't need the sky Bridge: C#m
C#m
e |-x-|---|---|---|---|
B |---|-x-|---|---|---|
G |---|---|-x-|---|---|
D |---|---|-x-|---|---|
A |-x-|---|---|---|---|
E |---|---|---|---|---|
G#m
G#m
e |-x-|---|---|---|---|
B |-x-|---|---|---|---|
G |-x-|---|---|---|---|
D |---|---|-x-|---|---|
A |---|---|-x-|---|---|
E |-x-|---|---|---|---|
E
E
e |---|---|---|---|---|
B |---|---|---|---|---|
G |-x-|---|---|---|---|
D |---|-x-|---|---|---|
A |---|-x-|---|---|---|
E |---|---|---|---|---|
D#m
D#m
e |---|-x-|---|---|---|
B |---|---|---|-x-|---|
G |---|---|-x-|---|---|
D |---|---|---|-x-|---|
A |---|---|---|---|---|
E |---|---|---|---|---|
Wonder what it is that makes the world turn slower C#m
C#m
e |-x-|---|---|---|---|
B |---|-x-|---|---|---|
G |---|---|-x-|---|---|
D |---|---|-x-|---|---|
A |-x-|---|---|---|---|
E |---|---|---|---|---|
G#m
G#m
e |-x-|---|---|---|---|
B |-x-|---|---|---|---|
G |-x-|---|---|---|---|
D |---|---|-x-|---|---|
A |---|---|-x-|---|---|
E |-x-|---|---|---|---|
E
E
e |---|---|---|---|---|
B |---|---|---|---|---|
G |-x-|---|---|---|---|
D |---|-x-|---|---|---|
A |---|-x-|---|---|---|
E |---|---|---|---|---|
F#
F#
e |---|-x-|---|---|---|
B |---|-x-|---|---|---|
G |---|---|-x-|---|---|
D |---|---|---|-x-|---|
A |---|---|---|-x-|---|
E |---|-x-|---|---|---|
wonder what it is that makes me feel so mad C#m
C#m
e |-x-|---|---|---|---|
B |---|-x-|---|---|---|
G |---|---|-x-|---|---|
D |---|---|-x-|---|---|
A |-x-|---|---|---|---|
E |---|---|---|---|---|
G#m
G#m
e |-x-|---|---|---|---|
B |-x-|---|---|---|---|
G |-x-|---|---|---|---|
D |---|---|-x-|---|---|
A |---|---|-x-|---|---|
E |-x-|---|---|---|---|
E
E
e |---|---|---|---|---|
B |---|---|---|---|---|
G |-x-|---|---|---|---|
D |---|-x-|---|---|---|
A |---|-x-|---|---|---|
E |---|---|---|---|---|
F#
F#
e |---|-x-|---|---|---|
B |---|-x-|---|---|---|
G |---|---|-x-|---|---|
D |---|---|---|-x-|---|
A |---|---|---|-x-|---|
E |---|-x-|---|---|---|
everyone that talks to me I so wish wouldn't G#m
G#m
e |-x-|---|---|---|---|
B |-x-|---|---|---|---|
G |-x-|---|---|---|---|
D |---|---|-x-|---|---|
A |---|---|-x-|---|---|
E |-x-|---|---|---|---|
E
E
e |---|---|---|---|---|
B |---|---|---|---|---|
G |-x-|---|---|---|---|
D |---|-x-|---|---|---|
A |---|-x-|---|---|---|
E |---|---|---|---|---|
B
B
e |---|-x-|---|---|---|
B |---|---|---|-x-|---|
G |---|---|---|-x-|---|
D |---|---|---|-x-|---|
A |---|-x-|---|---|---|
E |---|-x-|---|---|---|
F#
F#
e |---|-x-|---|---|---|
B |---|-x-|---|---|---|
G |---|---|-x-|---|---|
D |---|---|---|-x-|---|
A |---|---|---|-x-|---|
E |---|-x-|---|---|---|
I wouldn't even care exept I feel so bad G#m
G#m
e |-x-|---|---|---|---|
B |-x-|---|---|---|---|
G |-x-|---|---|---|---|
D |---|---|-x-|---|---|
A |---|---|-x-|---|---|
E |-x-|---|---|---|---|
E
E
e |---|---|---|---|---|
B |---|---|---|---|---|
G |-x-|---|---|---|---|
D |---|-x-|---|---|---|
A |---|-x-|---|---|---|
E |---|---|---|---|---|
B
B
e |---|-x-|---|---|---|
B |---|---|---|-x-|---|
G |---|---|---|-x-|---|
D |---|---|---|-x-|---|
A |---|-x-|---|---|---|
E |---|-x-|---|---|---|
F#
F#
e |---|-x-|---|---|---|
B |---|-x-|---|---|---|
G |---|---|-x-|---|---|
D |---|---|---|-x-|---|
A |---|---|---|-x-|---|
E |---|-x-|---|---|---|
(3x) Outro: G#m
G#m
e |-x-|---|---|---|---|
B |-x-|---|---|---|---|
G |-x-|---|---|---|---|
D |---|---|-x-|---|---|
A |---|---|-x-|---|---|
E |-x-|---|---|---|---|
E
E
e |---|---|---|---|---|
B |---|---|---|---|---|
G |-x-|---|---|---|---|
D |---|-x-|---|---|---|
A |---|-x-|---|---|---|
E |---|---|---|---|---|
B
B
e |---|-x-|---|---|---|
B |---|---|---|-x-|---|
G |---|---|---|-x-|---|
D |---|---|---|-x-|---|
A |---|-x-|---|---|---|
E |---|-x-|---|---|---|
F#
F#
e |---|-x-|---|---|---|
B |---|-x-|---|---|---|
G |---|---|-x-|---|---|
D |---|---|---|-x-|---|
A |---|---|---|-x-|---|
E |---|-x-|---|---|---|
G#m
G#m
e |-x-|---|---|---|---|
B |-x-|---|---|---|---|
G |-x-|---|---|---|---|
D |---|---|-x-|---|---|
A |---|---|-x-|---|---|
E |-x-|---|---|---|---|
E
E
e |---|---|---|---|---|
B |---|---|---|---|---|
G |-x-|---|---|---|---|
D |---|-x-|---|---|---|
A |---|-x-|---|---|---|
E |---|---|---|---|---|
B
B
e |---|-x-|---|---|---|
B |---|---|---|-x-|---|
G |---|---|---|-x-|---|
D |---|---|---|-x-|---|
A |---|-x-|---|---|---|
E |---|-x-|---|---|---|
F#
F#
e |---|-x-|---|---|---|
B |---|-x-|---|---|---|
G |---|---|-x-|---|---|
D |---|---|---|-x-|---|
A |---|---|---|-x-|---|
E |---|-x-|---|---|---|
why is there noone in my life G#m
G#m
e |-x-|---|---|---|---|
B |-x-|---|---|---|---|
G |-x-|---|---|---|---|
D |---|---|-x-|---|---|
A |---|---|-x-|---|---|
E |-x-|---|---|---|---|
E
E
e |---|---|---|---|---|
B |---|---|---|---|---|
G |-x-|---|---|---|---|
D |---|-x-|---|---|---|
A |---|-x-|---|---|---|
E |---|---|---|---|---|
B
B
e |---|-x-|---|---|---|
B |---|---|---|-x-|---|
G |---|---|---|-x-|---|
D |---|---|---|-x-|---|
A |---|-x-|---|---|---|
E |---|-x-|---|---|---|
F#
F#
e |---|-x-|---|---|---|
B |---|-x-|---|---|---|
G |---|---|-x-|---|---|
D |---|---|---|-x-|---|
A |---|---|---|-x-|---|
E |---|-x-|---|---|---|
G#m
G#m
e |-x-|---|---|---|---|
B |-x-|---|---|---|---|
G |-x-|---|---|---|---|
D |---|---|-x-|---|---|
A |---|---|-x-|---|---|
E |-x-|---|---|---|---|
E
E
e |---|---|---|---|---|
B |---|---|---|---|---|
G |-x-|---|---|---|---|
D |---|-x-|---|---|---|
A |---|-x-|---|---|---|
E |---|---|---|---|---|
B
B
e |---|-x-|---|---|---|
B |---|---|---|-x-|---|
G |---|---|---|-x-|---|
D |---|---|---|-x-|---|
A |---|-x-|---|---|---|
E |---|-x-|---|---|---|
F#
F#
e |---|-x-|---|---|---|
B |---|-x-|---|---|---|
G |---|---|-x-|---|---|
D |---|---|---|-x-|---|
A |---|---|---|-x-|---|
E |---|-x-|---|---|---|
time there's no time tonight G#m
G#m
e |-x-|---|---|---|---|
B |-x-|---|---|---|---|
G |-x-|---|---|---|---|
D |---|---|-x-|---|---|
A |---|---|-x-|---|---|
E |-x-|---|---|---|---|
E
E
e |---|---|---|---|---|
B |---|---|---|---|---|
G |-x-|---|---|---|---|
D |---|-x-|---|---|---|
A |---|-x-|---|---|---|
E |---|---|---|---|---|
B
B
e |---|-x-|---|---|---|
B |---|---|---|-x-|---|
G |---|---|---|-x-|---|
D |---|---|---|-x-|---|
A |---|-x-|---|---|---|
E |---|-x-|---|---|---|
F#
F#
e |---|-x-|---|---|---|
B |---|-x-|---|---|---|
G |---|---|-x-|---|---|
D |---|---|---|-x-|---|
A |---|---|---|-x-|---|
E |---|-x-|---|---|---|
G#m
G#m
e |-x-|---|---|---|---|
B |-x-|---|---|---|---|
G |-x-|---|---|---|---|
D |---|---|-x-|---|---|
A |---|---|-x-|---|---|
E |-x-|---|---|---|---|
E
E
e |---|---|---|---|---|
B |---|---|---|---|---|
G |-x-|---|---|---|---|
D |---|-x-|---|---|---|
A |---|-x-|---|---|---|
E |---|---|---|---|---|
B
B
e |---|-x-|---|---|---|
B |---|---|---|-x-|---|
G |---|---|---|-x-|---|
D |---|---|---|-x-|---|
A |---|-x-|---|---|---|
E |---|-x-|---|---|---|
F#
F#
e |---|-x-|---|---|---|
B |---|-x-|---|---|---|
G |---|---|-x-|---|---|
D |---|---|---|-x-|---|
A |---|---|---|-x-|---|
E |---|-x-|---|---|---|
Wide there's no room to see wide G#m
G#m
e |-x-|---|---|---|---|
B |-x-|---|---|---|---|
G |-x-|---|---|---|---|
D |---|---|-x-|---|---|
A |---|---|-x-|---|---|
E |-x-|---|---|---|---|
E
E
e |---|---|---|---|---|
B |---|---|---|---|---|
G |-x-|---|---|---|---|
D |---|-x-|---|---|---|
A |---|-x-|---|---|---|
E |---|---|---|---|---|
B
B
e |---|-x-|---|---|---|
B |---|---|---|-x-|---|
G |---|---|---|-x-|---|
D |---|---|---|-x-|---|
A |---|-x-|---|---|---|
E |---|-x-|---|---|---|
F#
F#
e |---|-x-|---|---|---|
B |---|-x-|---|---|---|
G |---|---|-x-|---|---|
D |---|---|---|-x-|---|
A |---|---|---|-x-|---|
E |---|-x-|---|---|---|
G#m
G#m
e |-x-|---|---|---|---|
B |-x-|---|---|---|---|
G |-x-|---|---|---|---|
D |---|---|-x-|---|---|
A |---|---|-x-|---|---|
E |-x-|---|---|---|---|
E
E
e |---|---|---|---|---|
B |---|---|---|---|---|
G |-x-|---|---|---|---|
D |---|-x-|---|---|---|
A |---|-x-|---|---|---|
E |---|---|---|---|---|
B
B
e |---|-x-|---|---|---|
B |---|---|---|-x-|---|
G |---|---|---|-x-|---|
D |---|---|---|-x-|---|
A |---|-x-|---|---|---|
E |---|-x-|---|---|---|
F#
F#
e |---|-x-|---|---|---|
B |---|-x-|---|---|---|
G |---|---|-x-|---|---|
D |---|---|---|-x-|---|
A |---|---|---|-x-|---|
E |---|-x-|---|---|---|
Time There's no time tonight G#m
G#m
e |-x-|---|---|---|---|
B |-x-|---|---|---|---|
G |-x-|---|---|---|---|
D |---|---|-x-|---|---|
A |---|---|-x-|---|---|
E |-x-|---|---|---|---|
E
E
e |---|---|---|---|---|
B |---|---|---|---|---|
G |-x-|---|---|---|---|
D |---|-x-|---|---|---|
A |---|-x-|---|---|---|
E |---|---|---|---|---|
B
B
e |---|-x-|---|---|---|
B |---|---|---|-x-|---|
G |---|---|---|-x-|---|
D |---|---|---|-x-|---|
A |---|-x-|---|---|---|
E |---|-x-|---|---|---|
F#
F#
e |---|-x-|---|---|---|
B |---|-x-|---|---|---|
G |---|---|-x-|---|---|
D |---|---|---|-x-|---|
A |---|---|---|-x-|---|
E |---|-x-|---|---|---|
(5x)

Added On December 16th, 2013

SHARE

Comments

blog comments powered by Disqus

ADVERTISEMENT