John Frusciante Tabs

Your Pussys Glued To A Building On Fire

1 versions

TAB

            this is just for the first half of the song excluding the repeat
of the first half

1-0----------------------------------------------------|
2-1-----0---1------------------------------------------|
3-0-0---0---0----2-----2-------------------------------|
4-2---2-2---2-2--2-----2-------------------------------|
5-3-----2---3--2-0-0-0-0-0-----------------------------|
6--------------------------2---------------------------|


1-0-----0--------------1--0----------------------------|
2-1-----1--------0-0-0-2--2---1------------------------|
3-2-2-2-3-2-2--2-2-2-2-3--3-0-2------------------------|
4-0-0-3-2-3-3--2-2-2-2-3--3-2-2------------------------|
5-3-3-2---2-0--3-3-3-3------3--------------------------|
6------------------------------------------------------|


1-------x--------------------0-0-0-1-1-1-------1-------|
2-------1---1---1------------1-1-1-0-0-0-------0-------|
3-0-----0-0-0-0-0-----0---1--0-0-0-0-0-0-0-0-0-0-------|
4-2-2---2-2-2-2-2-2-2-2-2-2--------------2-2-2---------|
5-3---0-3-3-3-3-3-0-0-2---3--------------3-3-3---------|
6------------------------------------------------------|


1-1-1-1-----------------1---1-----1---1-----1----------|
2-0-0-0-------------0-0-0---0-6---0---0-----0----------|
3-0-0-0-1-1-1-1-1-1-1-0---4---0-4---4---3-3---4-4-4----|
4-------2-2-2-3-3-3-3-----3-----3---3---3-3---3-3-3----|
5------------------------------------------------------|
6------------------------------------------------------|


1---0-----1-------1-1----------------------------------|
2-------1---1-------0---3-------1-----1---1------------|
3-4---4-0---0-4-5---0-4-3-4-1-1-1-1-1-0-2-0------------|
4-----0-------3-5-----3---3-------------0--------------|
5------------------------------------------------------|
6------------------------------------------------------|    

Added On December 16th, 2013

SHARE

Comments

blog comments powered by Disqus

ADVERTISEMENT