John Legend Tabs

Show Me

1 versions

TAB

            -----------------------------------------------------------------------------
			     Show Me - John Legend
-----------------------------------------------------------------------------
This is a pretty easy song by most standards: no capo, no different tuning, just some 
on an acustic-electric guitar. But, as always with tabs, listen to the song first and 
out the beat and strum pattern.

Tabbed by: Jimi Mayer

H- Hammer
P- Pull off
/- Slide

D- x77777
Bf-x33333
F- 133211
C- x35553
A7-x02020

    D                 B flat                                        F
e|-----(7)---------------(3)------------------------------------------------|
B|--7H8P7--------7----3H4P3--------3-3--------------------------------------|
G|--7------------7----3------------3-3---------------------------------2----|
D|--7------------7----3------------3-3---------3---3H5P3-----------------3--|
A|----------7----5----3-------3----1-1--1H-3/5---5---------5P3/1-----3------|
E|-----------------------------------------------------------------1--------|
On the pull off, strike the B and E with your middle finger to let it ring.

              C (2nd time A7)
e|--------------------------------------------------------------------------|
B|-------------5------------------------------------------------------------|
G|-------------5------------------------------------------------------------|
D|-------------5------------------------------------------------------------|
A|-----3---3H5----3H5---3H5-------------------------------------------------|
E|-3/5---5------------------------------------------------------------------|

Verse goes:
D     - x57775 (sometimes its sus so - x57785)
B flat- x13331 (also sometimes a sus - x13341)
F     - 133211 (sometimes to get to the C chord, he'll do the rift in the intro (second 
to get to the C chord)
C     - x35553

Chorus goes:

B flat- x13331
F     - 133211
C     - x35553
G     - 355433

I'm new at tabbing so rate this and tell me how it is :)

--- Falsification    

Added On December 16th, 2013

SHARE

Comments

blog comments powered by Disqus

ADVERTISEMENT