John Mayer Tabs

Whiskey Whiskey Whiskey

1 versions

TAB

            -------------------------------------------------------------------------------
                 WHISKEY, WHISKEY, WHISKEY - John Mayer
-------------------------------------------------------------------------------
Tabbed by: Tom Padula
Email: tpadula@gmail.com

This video was tabbed from John Mayer's performance at the Village Underground in 
New York City on 12/3/10: http://www.youtube.com/watch?v=yFrgiBOCmYs

Tuning: Standard

Intro/Chorus/Break/Outro

e|--0---0---0----|
B|--7---5---3----|
G|--7---6---0----|
D|--x---0---0----|
A|--5---x---2----|
E|--x---5---x----|

Verse

e|--0--0-----0--0-----0--0--0--0----|
B|--3--3-----3--3-----3--3--3--3----|
G|--4--2-----4--2-----4--2--0--0----|
D|--0--0-----0--0-----0--0--0--2----|
A|--x--x-----x--x-----x--x--x--3----|
E|--3--2-----3--2-----3--2--3--x----|

Post-Chorus

e|--0--0--0----0--0--0---|
B|--3--7--7----3--7--7---|
G|--0--5--6----0--5--6---|
D|--0--7--7----0--7--7---|
A|--2--x--x----2--x--x---|
E|--x--5--5----x--5--5---|

Bridge

e|--0-0---0-0---0-0---|
B|--1-1---3-3---3-3---|
G|--2-2---0-0---0-0---|
D|--2-2---0-0---0-2---|
A|--0-0---0-0---2-3---|
E|--0-0---3-2---x-x---|


Lyrics:

Intro

Verse:
I said up in New York City
I try to find the man I never got to be
Oh I push down on the pavement
Find the whole thing so much harder than it seems

The only deal I ever signed
The old devil drew a dotted line
The stage was set, the words were mine
I'm not complaining

Chorus:
Whiskey, whiskey, whiskey
Water, water, water
Sleep
Whiskey, whiskey, whiskey
Wake up, shake it off
And repeat

Post-Chorus:
It's just a phase
It's not forever
It's just a phase
And I still might have a ways to go

Break

Verse 2:
Every night around this time
My friends and I we treat it like a race
When I really start to break it down
When you trust a girl who knew about this place

Walking only nothing left
Speak softly underneath my breath
Hey world you ain't seen nothing yet
Pray now it's raining

Chorus:
Whiskey, whiskey, whiskey
Water, water, water
Sleep
Whiskey, whiskey, whiskey
Wake up, shake it off
And repeat

Post-Chorus:
It's just a phase
It's not forever
It's just a phase
But I still might have a ways...yeah

Bridge

Chorus:
Whiskey, whiskey, whiskey
Water, water, water
Sleep
Whiskey, whiskey, whiskey
Wake up, shake it off
And repeat it, repeat it, repeat after me

Outro    

Added On December 16th, 2013

SHARE

Comments

blog comments powered by Disqus

ADVERTISEMENT