Jose Gonzalez Tabs

Stay In The Shade

1 versions

TAB

            Stay In The Shade Tab by Jose Gonzalez


-----------------------------------------------------------------------------
08. Stay in the shade
-----------------------------------------------------------------------------
Tabbed by: Arto Schürch
Email:     arto_schuerch@gmx.ch



Tuning: D,G,D,G,B,e Capo on 3rd fret

[Intro] and Verses (repeat first line 8 or 16 times)

  1   &   2   &   3   &   4   &    
e|--------------------------------|
B|--------------------------------|
G|---(5)------5-------3-----------|   8x
D|--------5-------5---------------|
A|5-----------------------5-------|
D|--------------------------------|

  1   &   2   &   3   &   4   &    
e|--------------------5-----------|
B|--------------------------------|
G|---(5)------5-------------------|   1x
D|--------5-------5---------------|
A|5-----------------------5-------|
D|--------------------------------|

  1   &   2   &   3   &   4   &    
e|--------------------------------|
B|--------------------------------|
G|---(5)------5-------3-----------|   3x   :| (last two lines)
D|--------5-------5---------------|
A|5-----------------------5-------|
D|--------------------------------|


Chorus (last two lines form also ['Chorus'] 
and the second Chorus, where the lines are reversed):

  1   &   2   &   3   &   4   &    1   &   2   &   3   &   4   &
e|--------------------------------|--------------------------------|
B|--------------------------------|--------------------------------|
G|---(5)------5-------3-----------|---(5)------5-------3-----------|
D|--------5-------5---------------|--------5-------5---------------|
A|--------------------------------|3-----------------------3-------|
D|3-----------------------3-------|--------------------------------|

  1   &   2   &   3   &   4   &    1   &   2   &   3   &   4   &
e|------------6-------5-------3---|--------------------------------|
B|--------------------------------|--------------------------------|
G|--------------------------------|---(5)------5-------3-----------|
D|--------5-------5-------5-------|--------5-------5---------------|
A|5-------------------------------|5-----------------------3-------|
D|--------------------------------|--------------------------------|

  1   &   2   &   3   &   4   &    1   &   2   &   3   &   4   &
e|------------6-------5-------3---|--------------------------------|
B|--------------------------------|--------------------------------|
G|--------------------------------|---(5)------5-------3-----------|
D|--------5-------5-------5-------|--------5-------5---------------|
A|5-------------------------------|5-----------------------5-------|
D|--------------------------------|--------------------------------|

  1   &   2   &   3   &   4   &    1   &   2   &   3   &   4   &
e|------------6-------5-------3---|--------------------------------|
B|--------------------------------|--------------------------------|
G|--------------------------------|---(5)------5-------3-----------|
D|--------5-------5-------5-------|--------5-------5---------------|
A|--------------------------------|3-----------------------3-------|
D|3-------------------------------|--------------------------------|

  1   &   2   &   3   &   4   &    1   &   2   &   3   &   4   &
e|--------------------------------|--------------------------------|
B|--------------------------------|--------------------------------|
G|---(5)------5-------3-----------|---(5)------5-------3-----------|
D|--------5-------5---------------|--------5-------5---------------|
A|5-----------------------5-------|5-----------------------5-------|
D|--------------------------------|--------------------------------|


[Outro]:

  1   &   2   &   3   &   4   &    1   &   2   &   3   &   4   &
e|--------------------------------|--------------------5-----------|
B|--------------------------------|--------------------------------|
G|---(5)------5-------3-----------|---(5)------5-------------------|   4x
D|--------5-------5---------------|--------5-------5---------------|
A|5-----------------------5-------|5-----------------------5-------|
D|--------------------------------|--------------------------------|

  1   &   2   &   3   &   4   &    
e|--------------------5-----------|
B|-------------------(8)----------|
G|---(5)------5-------------------|   7x
D|--------5-------5---------------|
A|5-----------------------5-------|
D|--------------------------------|

  1   &   2   &   3   &   4   &    1   &   2   &   3   &   4   &
e|--------5-----------------------|5}~~~---------------------------|
B|--------8-----------------------|8}~~~---------------------------|
G|--------5-----------------------|5}~~~---------------------------|
D|--------5-----------------------|5}~~~---------------------------|
A|5---------------5-------5-------|5}~~~---------------------------|
D|--------------------------------|--------------------------------|    

Added On December 5th, 2013

SHARE

Comments

blog comments powered by Disqus

ADVERTISEMENT