Judas Priest Tabs

Rapid Fire

1 versions

TAB

            This is the way I play Rapid Fire. Awesome song, but i'm afraid I don't know the solo. 
the other version on this site is wrong. Sorry!
Anyway...

Intro/Rhythm for verse:
e(------------------)
b(------------------)
g(------------------)
D(------------------)
A(-7777777777777777-)
E(-5555555555555555-)
 PM................

Lead verse:
e(-----------------|----------------)
b(-----------------|----------------)
g(-5-5-5-5-5-5-5-5-|----------------)
D(-5-5-5-5-5-5-5-5-|-2---2-5--2---2-)
A(-3-3-3-3-3-3-3-3-|-0-5-0-3--0-5-0-)
E(-----------------|---3--------3---)

Pre-Bridge:
e(--------------------------------------)
b(--------------------------------------)
g(-2---2-5--2---2--2---2-5--2---5-2---5-)
D(-0-5-0-3--0-5-0--0-5-0-3--0-5-3-0-5-3-)
A(---3--------3------3--------3-----3---)
E(--------------------------------------)

Bridge:
e(-----------------)
b(-----------------)
g(-----------------)
D(-----------------)
A(-7p5-7p5-7p5-7-7-)
E(-----------------)

Then verse until end of song:
e(------)
b(------)
g(----2-)
D(-5--0-)
A(-3----)
E(------)    

Added On December 16th, 2013

SHARE

Comments

blog comments powered by Disqus

ADVERTISEMENT