Just Surrender Tabs

Our Work Of Art

1 versions

TAB

            Our Work Of Art Tab by Just Surrender


-------------------------------------------------------------------------------
			     Our Work of Art - Just Surrender
-------------------------------------------------------------------------------
Song: Our Work of Art
Artist: Just Surrender
Tabbed by: Andrew Lassise
Tuning: DADGBE

I think this is the first / original tab for this song. Feel free to spread it
but don't claim it as your own.

Intro Guitar 1
e|---------------------------------------------|
B|---------------------------------------------|
G|---------------------------------------------|
D|--6-------3-------8--------1-----------------|
A|--6-------3-------8--------1-----------------|
D|--6-------3-------8--------1-----------------|

e|---------|------------------------|--------------------|
B|---------|------------------------|--------------------|
G|---------|------------------------|--------------------|
D|--101010-|--1-1-1-1----1-1-1-1----|-6-6--6-6--6-6--6-6-|
A|--101010-|--1-1-1-1----1-1-1-1----|-6-6--6-6--6-6--6-6-|
D|--101010-|--1-1-1-1----1-1-1-1----|-6-6--6-6--6-6--6-6-|
            pm  . . .      . . .

e|---------|------------------------|------------------|---------|
B|---------|------------------------|------------------|---------|
G|---------|------------------------|------------------|---------|
D|--101010-|--1-1-1-1----1-1-1-1----|-6-6--6-6--6--6-6-|--101010-|
A|--101010-|--1-1-1-1----1-1-1-1----|-6-6--6-6--6--6-6-|--101010-|
D|--101010-|--1-1-1-1----1-1-1-1----|-6-6--6-6--6--6-6-|--101010-|
           pm   . . .      . . .

Intro Guitar 2
e|---------------------|
B|---------------------|
G|--6-6-6---6-6-6------|
D|--6-4-6---6-4-6------|
A|---------------------|
D|---------------------|

e|------------------------------|
B|------------------------------|
G|----------8--9--8----8--9--8--|
D|----------x--x--x----x--x--x--|
A|----------6--7--6----6--7--6--|
D|------------------------------|

e|------------------------------|
B|------------------------------|
G|----------11-13-11----9--11-9-|
D|----------x--x--x-----x--x--x-|
A|----------9--11-9-----9--11-9-|
D|------------------------------|


Verse 1
Guitar 1
e|------------------------------------------|
B|------------------------------------------|
G|------------------------------------------|
D|--6~-------3--------6--------1------------|
A|--6~-------3--x16---6--x16---1--x16-------|
D|--6~-------3--------6--------1------------|
PM	     .        .        .

e|------------------------------------------|
B|------------------------------------------|
G|------------------------------------------|
D|--6--------3--------6--------1------------|
A|--6--x16---3--x16---6--x16---1--x16-------|
D|--6--------3--------6--------1------------|
PM  .        .        .        .


Guitar 2
e|------|
B|------|
G|--8---|
D|--x---|
A|--6---|
D|------|

Pre Chorus
Guitar 1
e|----------------------|
B|----------------------|
G|----------------------|
D|-6~--6-6-6-6--1~------|
A|-6~--6-6-6-6--1~------|
D|-6~--6-6-6-6--1~------|
PM     . . . .

Guitar 2
e|--------------------|
B|--------------------|
G|-------5---------5~-|
D|-----5---5-------5~-|
A|---3-------3-----3~-|
D|--------------------|

Chorus
Guitar 1			     End With
e|---------------------------------|---------|
B|---------------------------------|---------|
G|---------------------------------|---------|
D|--6-------3-------8--------1-----|--101010-|
A|--6-------3-------8--------1-----|--101010-|
D|--6-------3-------8--------1-----|--101010-|

Guitar 2
e|---------------------|
B|---------------------|
G|--6-6-6---6-6-6------|
D|--6-4-6---6-4-6------|
A|---------------------|
D|---------------------|

Verse 2
Guitar 1
e|------------------------------------------|
B|------------------------------------------|
G|------------------------------------------|
D|--6~-------3--------6--------1------------|
A|--6~-------3--x16---6--x16---1--x16-------|
D|--6~-------3--------6--------1------------|
PM	     .        .        .

e|------------------------------------------|
B|------------------------------------------|
G|------------------------------------------|
D|--6--------3--------6--------1------------|
A|--6--x16---3--x16---6--x16---1--x16-------|
D|--6--------3--------6--------1------------|
PM  .        .        .        .

Guitar 2
e|------|
B|------|
G|--8---|
D|--x---|
A|--6---|
D|------|


Pre Chorus
Guitar 1
e|----------------------|
B|----------------------|
G|----------------------|
D|-6~--6-6-6-6--1~------|
A|-6~--6-6-6-6--1~------|
D|-6~--6-6-6-6--1~------|
PM     . . . .

Guitar 2
e|--------------------|
B|--------------------|
G|-------5---------5~-|
D|-----5---5-------5~-|
A|---3-------3-----3~-|
D|--------------------|

Chorus
Guitar 1			    End With
e|---------------------------------|---------|
B|---------------------------------|---------|
G|---------------------------------|---------|
D|--6-------3-------8--------1-----|--101010-|
A|--6-------3-------8--------1-----|--101010-|
D|--6-------3-------8--------1-----|--101010-|

Guitar 2
e|---------------------|
B|---------------------|
G|--6-6-6---6-6-6------|
D|--6-4-6---6-4-6------|
A|---------------------|
D|---------------------|

Bridge
Guitar 1 (listen for muting)		End on		
e|----|---------|--------|---------|------------|
B|----|---------|--------|---------|------------|
G|----|---------|--------|---------|------------|
D|----|---6-----|----1---|-----6---|---6~-------|
A|----|---6-----|----1---|-----6---|---6~-------|
D|----|---6-----|----1---|-----6---|---6~-------|

Guitar 2
e|------------------------------------|
B|------------------------------------|
G|--4-4-4-4-4-4-4-4-8-8-8-8-9-9-9-9---|
D|--x-x-x-x-x-x-x-x-x-x-x-x-x-x-x-x---| X4
A|--2-2-2-2-2-2-2-2-6-6-6-6-7-7-7-7---|
D|------------------------------------|

e|------------------------------------------------------|
B|------------------------------------------------------|
G|--9-9-9-9-8-8-8-8-4-4-9-9-9-9-8-8-8-8-4-4-4-4---------|
D|--x-x-x-x-x-x-x-x-x-x-x-x-x-x-x-x-x-x-x-x-x-x---------|
A|--7-7-7-7-6-6-6-6-2-2-7-7-7-7-6-6-6-6-2-2-2-2---------|
D|------------------------------------------------------|

Breakdown
Guitar 1 (Listen for strumming/muting)
e|---------|------|------|------------|----------|
B|---------|------|------|------------|----------|
G|---------|------|------|------------|----------|
D|--101010-|--6~--|--1~--|--6-6-6-6-6-|--1-1-1-1-|
A|--101010-|--6~--|--1~--|--6-6-6-6-6-|--1-1-1-1-|
D|--101010-|--6~--|--1~--|--6-6-6-6-6-|--1-1-1-1-|

Guitar 2
e|----------------------|
B|----------------------|
G|---------55-----------|
D|------55----55--------|
A|---33----------33-----|
D|----------------------|
PM   .. .. .. .. ..

Prechorus
Guitar 1
e|----------------------|
B|----------------------|
G|----------------------|
D|-6~--6-6-6-6--1~------|
A|-6~--6-6-6-6--1~------|
D|-6~--6-6-6-6--1~------|
PM     . . . .

Guitar 2
e|--------------------|
B|--------------------|
G|-------5---------5~-|
D|-----5---5-------5~-|
A|---3-------3-----3~-|
D|--------------------|

Final Chorus
Guitar 1			    End on
e|---------------------------------|-----|
B|---------------------------------|-----|
G|---------------------------------|-----|
D|--6-------3-------8--------1-----|--8~-|
A|--6-------3-------8--------1-----|--8~-|
D|--6-------3-------8--------1-----|--8~-|

Guitar 2
e|------------------------------------|-----|
B|------------------------------------|-----|
G|--4-4-4-4-4-4-4-4-8-8-8-8-9-9-9-9---|-----|
D|--x-x-x-x-x-x-x-x-x-x-x-x-x-x-x-x---|--8~-|
A|--2-2-2-2-2-2-2-2-6-6-6-6-7-7-7-7---|--8~-|
D|------------------------------------|--8~-|


| /  slide up
| \  slide down
| h  hammer-on
| p  pull-off
| ~  vibrato
| +  harmonic
| x  Mute note
===============================================================================    

Added On December 5th, 2013

SHARE

Comments

blog comments powered by Disqus

ADVERTISEMENT