Kesha Tabs

Crazy Kids

1 versions

TAB

            -----------------------------------------------------------------------------
                            Crazy Kids-Ke$ha
-----------------------------------------------------------------------------
Chords:
G  D5  Cadd9  Em7

Chord Tab:
     G    D5  Cadd9 Em7
[----3----3----3----3----|
[----3----3----3----3----|
[----0----2----0----0----|
[----0----0----2----2----|
[----2----x----3----2----|
[----3----x----x----0----|

(To play in tune; play the same chords with a capo on the third fret(?) but if you don't 
have a capo then just use the fingerings above)

Chords with Lyrics:
 G         D5      Cadd9
Hello, wherever you are
            Em7                         D5          Cadd9
Are you dancing on the dancefloor or drinking by the bar?

(It just continues like that for the rest of the song!!!

Thanx Guys,
Cobra15    

Added On December 16th, 2013

SHARE

Comments

blog comments powered by Disqus

ADVERTISEMENT